Song name
# A B C D E F G H I J K L M N O P Q R S T U V W X Y Z

Steve Von Till - Stained Glass tab

Stained Glass by Steve Von Till

Intro & Verse:

     Q    E   E  Q    Q
E||-------------------------|
B||-------------------------|
G||-------------------------|
D||--------------0----------|
A||-------0h--2-------2h----|
E||--0----------------------|


  Q    Q    Q     Q
-----------------------|
-----------------------|
-----------------------|
-------0---------------|
--3---------3p----2----|
-----------------------|

Chorus:

  Q    Q    Q    Q
----------------------|
-----------------0----|
------------2---------|
-------0--------------|
--2-------------------|
----------------------|


  Q    Q    Q    Q
----------------------|
-----------------0----|
------------2---------|
-------0--------------|
--2-------------------|
----------------------|


  Q    Q    Q    Q
----------------------|
-----------------0----|
------------2---------|
-------0--------------|
--1-------------------|
----------------------|


  Q    Q    Q    Q
----------------------|
-----------------0----|
------------2---------|
-------0--------------|
--1-------------------|
----------------------|


  Q    Q    Q    Q
----------------------|
-----------------0----|
------------2---------|
-------0--------------|
--2-------------------|
----------------------|


  Q    Q    Q    Q
----------------------|
----------------------|
-----------------2----|
-------0--------------|
--2-------------------|
------------2---------|


  Q    Q    Q    Q
----------------------||
-----------------0----||
------------2---------||
-------0--------------||
--1-------------------||
----------------------||

 Q    Q    Q    Q
----------------------||
-----------------0----||
------------2---------||
-------0--------------||
--1-------------------||
----------------------||

And that's all. Really simple, not to say minimalistic, like every song on Steve's first 
but if you sing along and try to emphatize, you'll get that hypnotizing feeling this 
gives.
Enjoy!

Lyrics:

The reflection of stained glass colors your face
The light of day echoes your skin
Giving summer's beauty the rightness of warmth
These words in your mouth
Bring the sadness of a thousand winters

Confusion builds a fire
The smoke must clear to see and breathe

The magic contained in the braiding of your hair
A spirit entwined in ritual knowing
A gift, a token of the unexplained
A grief that haunts me
To the ends of my mind

Confusion builds a fire
The smoke must clear to see and breathe
Tap to rate this tab
 
# A B C D E F G H I J K L M N O P Q R S T U V W X Y Z