Song name
# A B C D E F G H I J K L M N O P Q R S T U V W X Y Z

Steve Von Till - If I Should Fall To The Field tab

Artist - Steve von till (neurosis)
label - neurot recordings http://www.neurotrecordings.com/artists/svt/index.aspx
Song - to the field
Album - if I should fall to the field

This song is mostly finger picking, the chord shapes are extended in parts
indicated in brackets

Am7    G(6)     Em

E---  E(1)   E---|
B-1-  B---   B---|
G-2-  G---   G---|
D-2-  D---   D-2-|
A---  A-2*   A-2-|
E---  E-3-   E---|

Riff A
am7

E----------------------------------3--------|
B----1------1-----1----1----1-------1-------|
G------2------2----------------2-----2------|
D-------------------------------------------|
A--0-----0-----0-----0----0------0----------|
E-------------------------------------------|


Riff B
g(6)


E---------1---1--1---0--0-------------------|
B---------0---0------0--0-------------------|
G-----------------------0-------------------|
D-------------------------------------------|
A-------------------------------------------|
E--0---3-----3---3--3---3-------------------|


Riff C
f (the note not the chord)

E-------0----0--0--0-----1------------------|
B-------0----0-----0-----0------------------|
G------------------------0------------------|
D-------------------------------------------|
A-------------------------------------------|
E--0--1----1---1---1---0--------------------|

Riff D
em

E----0---0--0---------------------------------|
B----0---0-----------0------------------------|
G------------------0--------------------------|
D-----------------2---------------------------|
A----------------2----------------------------|
E---0---0--0---0------------------------------|

That's the bulk of the song There is a second guitar part I have not figured out before
the song goes into power chords
Tap to rate this tab
# A B C D E F G H I J K L M N O P Q R S T U V W X Y Z