Song name
# A B C D E F G H I J K L M N O P Q R S T U V W X Y Z

Steve Wariner - Holes In The Floor Of Heaven tab

Tabbed by:  Monsterbeast
Holes In The Floor Of Heaven
Steve Wariner
Play With Capo I (Numbers are relative to capo)
Intro:
-------3----------3--------3----------3--------3-----------3----|
----3-----3--1--1---1--0-----0--1--1-----1--3-----3--1--1-----1-|
----------------------------------------------------------------|
----------------------------------------------------------------|
----3--------3---------0--------0-----------3--------3----------|
----------------------------------------------------------------|

---------------3--|
----1-------1-----|
-------0h2--------|
------------------|
----3-------------|
------------------|
Tap to rate this tab
# A B C D E F G H I J K L M N O P Q R S T U V W X Y Z