Song name
# A B C D E F G H I J K L M N O P Q R S T U V W X Y Z

Steve Winwood - While You See A Chance tab

I was looking all over the internet for a tab intro to this song, couldn't find it.
So I started screwing around and this is what i came up with. I use a funk pedal
 simulation through garage band to give that synth kind of sound but without
it I think its good too.  This is my first tab so I tried to space it out accordingly,
 if you know the song though I think you'll get the gist after a couple of times.


e --------------------------------------------|
B --------------------------------------------|
G --7-9/11-11b-99-7----7-9/11-11b-9-7---------|
D 9------------------9------------------------|
A --------------------------------------------|
E --------------------------------------------|



e-------------------------------------------------------------------------------|
B-------------------------------------------------------------------------------|
G 7/11-99-77----9---7-9-11-12-11-99-11---11-12-11-9-11---11-11-12-12----12-11---|
D------------99-----------------------------------------------------------------|
A-------------------------------------------------------------------------------|
E-------------------------------------------------------------------------------|
Tap to rate this tab
# A B C D E F G H I J K L M N O P Q R S T U V W X Y Z