Song name
# A B C D E F G H I J K L M N O P Q R S T U V W X Y Z

Steven Curtis Chapman - Heartbeat Of Heaven tab

      Hearbeat of Heaven (reprise) By Steve Curtis Chapman

         Tab for the soloing that steve does 
E|--11-10-8-8/10----|
B|------------------|
G|------------------|
D|------------------|
A|------------------|
E|------------------|

E|--10h11-11/13~-13-----------------|
B|------------------11h13-----------|
G|------------------------10h12~----|
D|-------------------------------12-|
A|----------------------------------|
E|----------------------------------|

E|--10h11-11/13~-13--------13-11-10--------------|
B|------------------11h13-----------13-11--------|
G|----------------------------------------10-12~-|
D|-----------------------------------------------|
A|-----------------------------------------------|
E|-----------------------------------------------|
Tap to rate this tab
 
# A B C D E F G H I J K L M N O P Q R S T U V W X Y Z