Song name
# A B C D E F G H I J K L M N O P Q R S T U V W X Y Z

Steven Curtis Chapman - Carry You To Jesus chords

Highlighted       Show chord diagrams
Tabbed by Jacob May (Jacob@AboveProductions.com) email me w/questions or
comments

-----------------------------------------------------------------------------
Verse Chords:
Fingerpick these chords from top to bottom 4 times each (he goes pretty fast)

   G#m      	   F#*     	   E
|---4-----+	+---2-----+	+---0-----+
|---------+	+---------+	+---------+
|----6----+	+----4----+	+----2----+
|-----4---+	+-----3---+	+-----1---+
|------4--+	+------4--+	+------0--+
|---------+	+---------+	+---------+

Chorus Chords:
Just strum, listen to the song for timing and pattern

Bridge Chords:
Fun stuff here. Don't know their names.

     G*      	   Aug1     	   Aug2
|----0----+	+----0----+	+---------+
|----5----+	+----2----+	+---------+
|----5----+	+----3----+	+----3----+
|----4----+	+----1----+	+----1----+
|----0----+	+----3----+	+----0----+
|----0----+	+----1----+	+----1----+

-----------------------------------------------------------------------------


Verse:
G#m  F#*(x2)
E    G#m
E

Chorus:
E   B
E   G#m  F#
E   F#   G#m  F#  E


Bridge:
E   G*   B   Aug1
E   G*   B   Aug2
E


End:
E
E

-----------------------------------------------------------------------------
Oh and the little solo you hear in the beginning:

	-------------------------------|
	---------------------------4---|
	--1---4-2---------1---4-2------|
	---------4-1-------------4-----|
	-------------------------------|
	-------------------------------|

or, maybe,

---------------------------------------------|
---------------------------------------------|
--1---4-2----------1---4-4-2-----------------|
---------4-1----------------4-1--------------|
---------------------------------------------|
---------------------------------------------|
Tap to rate this tab
# A B C D E F G H I J K L M N O P Q R S T U V W X Y Z