Guitaretab - guitar tabs
Song name
# A B C D E F G H I J K L M N O P Q R S T U V W X Y Z

Steven Curtis Chapman - Fingerprints Of God tab

============================================     =========================
Fingerprints Of God---Steven Curtis Chapman------Transfered by Asa Gaston
============================================     =========================  

Intro:							[twice]       then
eb|---------------------------------------------------------|-0-0-0---|
Bb|--------3---5-3---3---5-3---3------1---3-1---1---1-3-5-3-|-1-1-1---|
Gb|----0-0---0-----0---0-----0------------------------------|-2-2-2---|
Db|0s4----------------------------3-3---3-----3---3---------|-3-3-3---|
Ab|---------------------------------------------------------|---------|
Eb|---------------------------------------------------------|---------|

Verse      Am    Em    Fmaj7     [repeat]
eb|---------0-|
Bb|-1-0-----1-|
Gb|-----2-0-2-|
Db|---------2-|
Ab|---------0-|
Eb|---------0-|

Pre Chorus
eb|----1-1-1-1-1----0-0-0-0-0----0-0-0-0-0-X-3-3-|
Bb|---3--3-3-3-3---0--0-0-0-0---1--1-1-1-1-X-0-0-|
Gb|--2---2-2-2-2--0---0-0-0-0--2---2-2-2-2-X-0-0-|
Db|-0----0-0-0-0-2----2-2-2-2-3----3-3-3-3-X-0-0-|
Ab|-------------------2-2-2-2--------------X-2-2-|
Eb|-------------------0-0-0-0--------------X-3-3-|
[ Tab from: http://www.guitaretab.com/s/steven-curtis-chapman/70274.html ]
Chorus               strum  2X       
eb|---0---0---0---3---1----3---|-1-3--0--0--3-2--1--1-|
Bb|---1---1---1---0---1----3---|-3-0--0--1--0-3--3--1-|
Gb|---0---0---2---0---2----4---|-2-0--1--2--0-2--2--2-|
Db|---2---0---2---0---3----5---|-0-0--2--2--0-0--0--3-|
Ab|-3---2---0-----2---3----5---|----2--0--0--2-0-----3-|
Eb|-------------3---1------3---|----3--4-----3-2-----1-|

Then first solo:
eb|-----0---------0-----0-0-0|
Bb|-1-3---3-0-1-3---3-0-1-1-1-|
Gb|---------------------2-2-2-|
Db|---------------------3-3-3-|
Ab|---------------------------|
Eb|---------------------------|

Verse        Pre chorus       Chorus

Second solo
eb|-----------------0---------------------------------0-0-1-0--------|
Bb|-----------0-1-3-----------------------------0-1-3-----------------|
Gb|-------0-2---------0-2s4s2-2-0-----------0-2---------------2-2-0---|
Db|---0-2-------------------------3-2---0-2------------------------3-2|
Ab|-3---------------------------------3-------------------------------|
Eb|-------------------------------------------------------------------|

Bridge:  Dm     Em     F     Fm


Chorus [Key change]
D	A	Bm	A	G

Em	A	F	Bm	A	E	Em	G


Related for Fingerprints Of God tab