Guitaretab - guitar tabs
Song name
# A B C D E F G H I J K L M N O P Q R S T U V W X Y Z

Steven Curtis Chapman - I Am Found In You tab

"I am Found in You"
Steven Curtis Chapman
Written by SCC Tabbed by Britt Taylor(FretMaster@hotmail.com)

Tune guitar down a half step(Eb Ab Db Gb Bb Eb)
Intro
Eb
Bb -----3--------3--------3--------3------| (Repeat)
Gb -----0--------0--------0--------0------|
Db -3---------2---------1--------0--------|
Ab ---------------------------------------|
Eb 3---------3---------3--------3---------|
[ Tab from: http://www.guitaretab.com/s/steven-curtis-chapman/82166.html ]
Verse: Play intro 2x. Third time play:
Eb-----------------------------------------------------------------------|
Bb-----3--------3---------3--------3---------3------3--------3---------3-|
Gb----0-------0--------0--------0---------0-------0--------0---------0---|
Db--2-----3----------2--------3-------2---------0-------2-------2--------|
Ab---------------------------1---------0--------2-------3--------3-------|
Eb-0-----1---------0-----------------------------------------------------|


Chorus:
D---------------- Em----- C
So where else could I turn
D------------------- Em----- C
And where else could I go
D----------- Em------- C
You have given me life
Bm--------------------- C
You have made me whole
E/B------------------------ Em
You have rescued my soul
-------------Am---------- G/B
So where else could I go
-----C
For I am Found in You (Verse)

Second chorus +
C--------------------------- Em
Lord without you this child would be so lost
----------Am------------------------ G/B
But I'm found in You, now I'm bound to You
---------C
By the love that you shown, it will not let me go
Chorus
For the outro keep playing the chorus chords (D Em C) and they will fit.
Believe me. God Bless.
Related for I Am Found In You tab
Advertisement will be closed in 10 seconds