Steven Fiore - You Can Always Come Home tab

You Can Always Come Home
by Steven Fiore

Tabbed by: Brian Boothe

Standard Tuning
Capo 4th Fret

Intro (fret numbers relative to capo)


e-------0h2-----------------0---2------0h2---------------------------|
B----3------3---0-------3-----------3------3---0-------3/5-----0-----|
G-------------------2------------------------------2-------2---------|
D--0---0------0---0---0---0---0---0---0------0---0---0-------0-------|
A--------------------------------------------------------------------|
E--------------------------------------------------------------------|

e--------------------------------------------------------------------|
B--------0-------0-------0-------0-------2-------2------2-------2----|
G----2-------2-------2-------2-------2-------2-------2------2--------|
D--------------------------------------2-------2-------2------2------|
A----------------------------------0-------0-------0------0----------|
E--3---3---3---3---3---3---3---3-------------------------------------|

Verse 1

e-------0h2----------------------------0h2-----0-------0-------------|
B----3------3---0-------0-------0---3------3-------3-------3---------|
G-------------------2-------2----------------------------------2-----|
D--0---0------0---0---0---0---0---0---0------0---0---0---0---0-------|
A--------------------------------------------------------------------|
E--------------------------------------------------------------------|

e--------------------------------------------------------------------|
B--------0-------0-------0-------0-------2-------2------2-------2----|
G----2-------2-------2-------2-------2-------2-------2------2--------|
D--------------------------------------2-------2-------2------2------|
A----------------------------------0-------0-------0------0----------|
E--3---3---3---3---3---3---3---3-------------------------------------|

Chorus

I know we barely even started but I fully believe
e--------------------------------------------------------------------|
B--------0--------0--------0--------0--------------------------------|
G------0-----0--0-----0--0-----0--0----------------------------------|
D------2--------2--------2--------2----------------------------------|
A------2--------2--------2--------2----------------------------------|
E--0-------0--------0--------0---------------------------------------|

you could've been the one for me
e--------------------------------------------------------------------|
B---------2--------2--------2--------2-------------------------------|
G----2--2-----2--2-----2--2-----2--2---------------------------------|
D-------2--------2--------2--------2---------------------------------|
A--0----0---0----0---0----0---0----0---------------------------------|
E--------------------------------------------------------------------|

       G
And I miss what we might've had
         Bm                     A
Honey I miss what we could've done
           G
I wrote a sad song about it and I'm still pretty bitter
          Bm                      A
But I'm happy if you're happy he won
    G                          Bm
And I still miss you in the night
                    G
And I want you to know

If he leaves you cold in the city, aching for a lover
  A
Honey you can always come home



end of the chorus is followed directly with the intro and then into the verse

Verse 2 there is a little part where he repeats a section of the guitar, its not too 
hard to catch if you listen for it, just a "heads up" for ya


The last chorus is the same until the end where he sings

G
If he leaves you cold in the city, aching for a lover
  A                         Bm
Honey you can always come home
G
If he leaves you cold in the city, and you're begging for a lover
  A
Honey you can always come home


Outro

play in the intro and the end on

e----0----|
B----3----|
G----2----|
D----0----|
A---------|
E---------|




************************************

| /   slide up
| \   slide down
| h   hammer-on
| p   pull-off
| ~   vibrato
| +   harmonic
| x   Mute note
| b   Bend
| pb  Pre-bend
| br  Bend release
| pbr Pre-bend release
| brb Bend release bend

************************************
Tap to rate this tab
 
# A B C D E F G H I J K L M N O P Q R S T U V W X Y Z