Song name
# A B C D E F G H I J K L M N O P Q R S T U V W X Y Z

Steven Loki Howell - Kiss Me tab

Okay. There are only 2 real parts to this song guitar wise. This is the way *I* play it
and it works well for me. I'm really just gonna show you where to put your fingers and
how many times to strum each chord. First of all, in order to play this song you need to 
tune your A string down to A-flat. It doesn't really matter if you have your guitar tuned
to Drop D or standard. Either will do because the bottom string will not be used here. 
You can figure out the strum pattern. It's different almost every time I play it 
so..anyways, here we go!!

Part 1 (0:00-1:37) & (2:15-3:09)
e]-------------------------------------------------------|
b]-------------------------------------------------------|
g]----2-2-2-2------2-2-2-2-2-2-2-2-2-2-2-----------------|
d]----2-2-2-2------2-2-2-2-2-2-2-2-2-2-2-----------------|
a]--0-0-0-0-0----1-1-1-1-1-1-1-1-1-1-1-1-----------------|
d]-------------------------------------------------------|


Part 2 (1:38-2:14)
e]-------------------------------------------------------|
b]-------------------------------------------------------|
g]--4-4-4-4-4-4-4-4-4-4----2-2-2-2-2-2-2-2-2-2-----------|
d]--4-4-4-4-4-4-4-4-4-4----2-2-2-2-2-2-2-2-2-2-----------|
a]--3-3-3-3-3-3-3-3-3-3----1-1-1-1-1-1-1-1-1-1-----------|
d]-------------------------------------------------------|

Done.
Tap to rate this tab
 
# A B C D E F G H I J K L M N O P Q R S T U V W X Y Z