Steven Wilson - Collecting Space tab

--------------------------------------------------------------------------------------
			     COLLECTING SPACE by Steven Wilson
--------------------------------------------------------------------------------------
Tabbed by: Maitepo (May 30, 2011)
Awesome song!
I have been trying to make a tab of this song for years but never found the time.
Please note that this is my first guitar tab, so if you can fix this up then by 
all means do it. Thanks.

Check out my cover on youtube of this song:
http://www.youtube.com/watch?v=FUpYjzMQu30
Enjoy!

Tuning:Standard (EADGBe)

00.00 to 00.43 (Plucking Recommended)                                               x4
e|-----------------------------------------------------------------------------------|
B|----3---3---3-----------4---4---4-----------4---3---4-----------4---3---3----------|
G|---0---0---0-----------0---0---0---0-----------------------------------------------|
D|-----------------------------------------------------------------------------------|
A|-3-------------3-3/6---------------------------------------------------------------|
E|--------------------------------------4-(4)---4---4----4-3-(3)----3---3----3-------|

00.43 to 01.05 (Chords: A#/Bb6add9, Am, Cadd9, G)                                   x2
e|-----------1-----------------0-----------------3----------------------3------------|
B|-----1---1---1---------1---1---1---------3---3---3--------------3---3---3----------|
G|-------0-----------------2-----------------0-------(0)------------0-------(0)------|
D|----0----------------2-----------------2----------------------0--------------------|
A|-1----------------0-----------------3----------------------------------------------|
E|----------------------------------------------------------3------------------------|

01.04 to 01.47 (Koto? Intro) *Try keeping finger on fret-board at all times*        x2
e|-----------------------------------------------------------------------------------|
B|-1/------13-13\8~---6~--8~--11\1~-----13\8~---6~--8~--11~---13~--------------------|
G|-----------------------------------------------------------------------------------|
D|-----------------------------------------------------------------------------------|
A|-----------------------------------------------------------------------------------|
E|-----------------------------------------------------------------------------------|

01.05 to 02.09                                                                      x6
e|-----------------------------------------------------------------------------------|
B|----3---3---3-----------4---4---4-----------4---3---4-----------4---3---3----------|
G|---0---0---0-----------0---0---0---0-----------------------------------------------|
D|-----------------------------------------------------------------------------------|
A|-3-------------3-3/6---------------------------------------------------------------|
E|--------------------------------------4-(4)---4---4----4-3-(3)----3---3----3-------|

02.09 to 02.31 (Chords: A#/Bb6add9, Am, Cadd9, G)                                   x2
e|-----------1-----------------0-----------------3----------------------3------------|
B|-----1---1---1---------1---1---1---------3---3---3--------------3---3---3----------|
G|-------0-----------------2-----------------0-------(0)------------0-------(0)------|
D|----0----------------2-----------------2----------------------0--------------------|
A|-1----------------0-----------------3----------------------------------------------|
E|----------------------------------------------------------3------------------------|

02.31 to 03.14 (Electric Violin) *Br/b = half bend*
e|-----------------------------------------------------------------------------------|
B|-----------------------------------------------------------------------------------|
G|-/10---12br/b--8--5-5~--4-4~-----12-12-12brb--17--15~---/10---8--15br/b-15br/b~----|
D|-----------------------------------------------------------------------------------|
A|-----------------------------------------------------------------------------------|
E|-----------------------------------------------------------------------------------|



e|-----------------------------------------------------------------------------------|
B|-----------------------------------------------------------------------------------|
G|-12-12\10--8--/10--/7--/5~----12--15---17--20--22~--------7\3-5--8~--10~--15~------|
D|-----------------------------------------------------------------------------------|
A|-----------------------------------------------------------------------------------|
E|-----------------------------------------------------------------------------------|

e|-----------------------------------------------------------------------------------|
B|-10-12--15--17~~~------------------------------------------------------------------|
G|-----------------------------------------------------------------------------------|
D|-----------------------------------------------------------------------------------|
A|-----------------------------------------------------------------------------------|
E|-----------------------------------------------------------------------------------|

02.31 to 03.14                                                                      x4
e|-----------------------------------------------------------------------------------|
B|----3---3---3-----------4---4---4-----------4---3---4-----------4---3---3----------|
G|---0---0---0-----------0---0---0---0-----------------------------------------------|
D|-----------------------------------------------------------------------------------|
A|-3-------------3-3/6---------------------------------------------------------------|
E|--------------------------------------4-(4)---4---4----4-3-(3)----3---3----3-------|

03.14 to 03.35 (Chords strum downward [E to e] once)
e|----------0---3---3-------1---0---3---3--------------------------------------------|
B|----------1---3---3-------1---1---3---3--------------------------------------------|
G|----------2---0---0-------0---2---0---0--------------------------------------------|
D|----------2---2---0-------0---2---2---0--------------------------------------------|
A|----------0---3---2-------1---0---3---2--------------------------------------------|
E|------------------3-------------------3--------------------------------------------|

03.37 to 04.33 (Guitar Solo ... I tried my best but it is kinda butchered, sorry.)
e|-----------------------------------------------------------------------------------|
B|-pb15--13---------------------------------------------------/15--16-13-15-16-13-15-|
G|-------------10h12p10--12---8~-----7brb---7brb-7\5-5~------------------------------|
D|-----------------------------------------------------------------------------------|
A|-----------------------------------------------------------------------------------|
E|-----------------------------------------------------------------------------------|

e|-----------------------------------------------------------------------------------|
B|--------------------6-8-----8-4-6-4-------------------------------6-8-8~--6-8-6--8-|
G|-15\12-12\----5-7-8-----7-8---------7brb-7--7\5---7brb-5-7--5-7-8------------------|
D|-----------------------------------------------------------------------------------|
A|-----------------------------------------------------------------------------------|
E|-----------------------------------------------------------------------------------|

e|-----------------------------------------------------------------------------------|
B|-18-16--15-------------------------------------------------------------------------|
G|------------15--15\12~---------8h10-10brb-8h10--10/12\8---10brb--10-10-10-10p8~----|
D|--------------------------8h10-----------------------------------------------------|
A|-----------------------------------------------------------------------------------|
E|-----------------------------------------------------------------------------------|

e|-----------------------------------------------------------------------------------|
B|----------------8-------8------8--------8----------------------8-8~---8\--6brbp4h6-|
G|-7brb-----7brb----7brb----7brb----7brb-----7brb--7brb--7\5-5-----------------------|
D|-----------------------------------------------------------------------------------|
A|-----------------------------------------------------------------------------------|
E|-----------------------------------------------------------------------------------|





e|-----------------------------------------------------------------------------------|
B|-6p4---------------------11--9p8-9p8-----------------------------------------------|
G|-----5-5--3---------8h10-----------------------------------------------------------|
D|---------------8h10----------------------------------------------------------------|
A|-----------------------------------------------------------------------------------|
E|-----------------------------------------------------------------------------------|

04.34 to 5.10 (Outro ... Could not figure it out even by stripping down the audio 
track w/audacity)
e|-----------------------------------------------------------------------------------|
B|-----------------------------------------------------------------------------------|
G|-----------------------------------------------------------------------------------|
D|-----------------------------------------------------------------------------------|
A|-----------------------------------------------------------------------------------|
E|-----------------------------------------------------------------------------------|


************************************

| /   slide up
| \   slide down
| h   hammer-on
| p   pull-off
| ~   vibrato
| +   harmonic
| x   Mute note
| b   Bend
| pb  Pre-bend
| br  Bend release
| pbr Pre-bend release
| brb Bend release bend

************************************
Tap to rate this tab
 
# A B C D E F G H I J K L M N O P Q R S T U V W X Y Z