Song name
# A B C D E F G H I J K L M N O P Q R S T U V W X Y Z

Steven Wilson - Sectarian tab

--------------------------------------------------------------------------
                        "SECTARIAN" - Steven Wilson
--------------------------------------------------------------------------
Tabbed by: simon_brekke@hotmail.com   Feel free to ask questions. 
From the album Grace For Drowning.
This is my first tab. Sorry if it is not 100% correct. 

This song is in 7/8 and each dash represents one 16th note, 
thus 14 dashes per measure. 
Since the number 10 takes up two dashes, it is hard to write 
the rhythm correctly in the first chord. 
Therefore, I will make T = 10th fret. 
|-------------------------------------------------------------------------|

|INTRO|
(T = 10th fret)
e( |--------------|--------------|--------------|--------------|
B( |--------------|--------------|--------------|--------------|
G(o|--------------|--------------|--------------|--------------|
D(o|T-----T--T-T-T|T-----T--T-T-T|T-----T--T-T-T|T-----T--T-T-T|
A( |T-----T--T-T-T|T-----T--T-T-T|T-----T--T-T-T|T-----T--T-T-T|
E( |8-888-8--8-8-8|8-888-8--8-8-8|8-888-8--8-8-8|8-888-8--8-8-8|

  e|--------------|--------------|--------------|--------------| )
  B|--------------|--------------|--------------|--------------| )
  G|--------------|--------------|--------------|--------------|o)Play
  D|7-----7--7-7-7|7-----7--7-7-7|7-----7--7-7-7|7-----7--7-7-7|o)section
  A|6-----6--6-6-6|6-----6--6-6-6|6-----6--6-6-6|6-----6--6-6-6| )3 times
  E|5-555-5--5-5-5|5-555-5--5-5-5|5-555-5--5-5-5|5-555-5--5-5-5| )


|HEAVIER| 1:08

Guitar 1.
e( |--------------|--------------|--------------|--------------|
B( |--------------|--------------|--------------|--------------|
G(o|--------------|--------------|--------------|--------------|
D(o|2-----2--2-2-2|2-----2--2-2-2|2-----2--2-2-2|2-----2--2-2-2|
A( |2-----2--2-2-2|2-----2--2-2-2|2-----2--2-2-2|2-----2--2-2-2|
E( |0-000-0--0-0-0|0-000-0--0-0-0|0-000-0--0-0-0|0-000-0--0-0-0|

  e|--------------|--------------|--------------|--------------| )
  B|--------------|--------------|--------------|--------------| )
  G|--------------|--------------|--------------|--------------|o)Play
  D|T-----T--T-T-T|T-----T--T-T-T|T-----T--T-T-T|T-----T--T-T-T|o)section
  A|T-----T--T-T-T|T-----T--T-T-T|T-----T--T-T-T|T-----T--T-T-T| )2 times
  E|8-888-8--8-8-8|8-888-8--8-8-8|8-888-8--8-8-8|8-888-8--8-8-8| )

  e|--------------|--------------|--------------|--------------|
  B|--------------|--------------|--------------|--------------|
  G|--------------|--------------|--------------|--------------|
  D|2-----2--2-2-2|2-----2--2-2-2|2-----2--2-2-2|2-----2--2-2-2|
  A|2-----2--2-2-2|2-----2--2-2-2|2-----2--2-2-2|2-----2--2-2-2|
  E|0-000-0--0-0-0|0-000-0--0-0-0|0-000-0--0-0-0|0-000-0--0-0-0|

Guitar 2
-8 measure rest- Then at 1:32
e|--------------|--------------|--------------|--------------|
B|--------------|--------------|--------------|--------------|
G|--------------|--------------|--------------|--------------|
D|--------------|--------------|------12------|14----16------|
A|--------------|-------13-----|15------------|--------------|
E|12----14------|16------------|----------- --|--------------|

Ad lib.
e|------15------|----15--------|--15----------|15----------15|
B|----17--17----|--17--17------|17--17------17|--17------17--|
G|--17------17--|17------17--17|------17--17--|----17--17----|
D|17----------17|----------17--|--------17----|------17------|
A|--------------|--------------|--------------|--------------|
E|--------------|--------------|--------------|--------------|

e|--------------|--------------|--------------|--------------|
B|--------------|--------------|--------------|--------------|
G|--------------|--------------|--------------|--------------|
D|--------------|--------------|------12------|14----16------|
A|--------------|-------13-----|15------------|--------------|
E|12----14------|16------------|----------- --|--------------|

e|----------|
B|----------|
G|----------| <---Time signature is 5/8. 
D|----------|
A|----------|
E|12-8-11---|


|SAX SOLO| 2:08

Guitar 1. (T=10th fret)
e|--------------|--------------|--------------|----------|
B|--------------|--------------|--------------|----------|
G|--------------|--------------|--------------|----------|
D|T-----T--T-T-T|T-----T--T-T-T|T-----T--T-T-T|----------|
A|T-----T--T-T-T|T-----T--T-T-T|T-----T--T-T-T|----------|
E|8-888-8--8-8-8|8-888-8--8-8-8|8-888-8--8-8-8|12-8-11---|

e|--------------|--------------|--------------|----------|
B|--------------|--------------|--------------|----------|
G|--------------|--------------|--------------|----------|
D|2-----2--2-2-2|2-----2--2-2-2|2-----2--2-2-2|----------|
A|2-----2--2-2-2|2-----2--2-2-2|2-----2--2-2-2|----------|
E|0-000-0--0-0-0|0-000-0--0-0-0|0-000-0--0-0-0|12-8-11---|

e|--------------|--------------|--------------|----------|
B|--------------|--------------|--------------|----------|
G|--------------|--------------|--------------|----------|
D|T-----T--T-T--|T-----T--T-T--|T-----T--T-T--|----------|
A|9-----9--9-9--|9-----9--9-9--|9-----9--9-9--|----------|
E|8-----8--8-8--|8-----8--8-8--|8-----8--8-8--|12-8-11---|

e|--------------|--------------|--------------|----------|
B|--------------|--------------|--------------|----------|
G|--------------|--------------|--------------|----------|
D|2-----2--2-2-2|2-----2--2-2-2|2-----2--2-2-2|----------|
A|2-----2--2-2-2|2-----2--2-2-2|2-----2--2-2-2|----------|
E|0-000-0--0-0-0|0-000-0--0-0-0|0-000-0--0-0-0|12-8-11---|

e|--------------|--------------|--------------|----------|
B|--------------|--------------|--------------|----------|
G|--------------|--------------|--------------|----------|
D|T-----T--T-T-T|T-----T--T-T-T|T-----T--T-T-T|----------|
A|T-----T--T-T-T|T-----T--T-T-T|T-----T--T-T-T|----------|
E|8-888-8--8-8-8|8-888-8--8-8-8|8-888-8--8-8-8|12-8-11---|

Guitar 2. (at 2:40, after the staccatos.)
e|--------------|--------------|--------------|----------|
B|--------------|--------------|--------------|----------|
G|--------------|--------------|--------------|----------|
D|--------------|--------------|------12------|----------|
A|--------------|-------13-----|15------------|----------|
E|12----14------|16------------|----------- --|12-8-11---|

e|--------------|--------------|--------------|----------|
B|--------------|--------------|--------------|----------|
G|--------------|--------------|--------------|----------|
D|--------------|--------------|--------------|----------|
A|--------------|------12------|13------------|----------|
E|12----14------|15------------|--------------|12-8-11---|


|--------------------------------------------------------|

And I think you'll figure out the rest from here. Mostly it's 
just keyboard jazz solos that you don't have to worry about.

Hope this helped! Ratings appreciated (especially the good ones)
Tap to rate this tab
 
# A B C D E F G H I J K L M N O P Q R S T U V W X Y Z