Song name
# A B C D E F G H I J K L M N O P Q R S T U V W X Y Z

Steven Wilson - Salvaging tab

-------------------------------------------------------------------------------
                             SALVAGING - Steven Wilson
-------------------------------------------------------------------------------
Tabbed by: Simon Brekke
E-mail: simon_brekke@hotmail.com

Tuning: Standard

Note that the rythm for the main riff may not be 100% spot on. 


0:15 Rythm Guitar                  /^^^^^^ Repeat this measure 6x ^^^^^\ 
E|---------------------------------|-----------------------------------|
A|---------------------------------|-----------------------------------|
D|222-2-2222-2-2222222-2-2225-5-555|:522-2-2222-2-2222222-2-2225-5-555:| 
G|---------------------------------|:---------------------------------:|
B|---------------------------------|-----------------------------------|
e|---------------------------------|-----------------------------------|

After 8 measures at 1:17
E|---------------------------------|---------------------------------|
A|---------------------------------|---------------------------------|
D|---------------------------------|---------------------------------|
G|555-5-5555-5-5555555-5-5555-5-555|333-3-3333-3-3333333-3-3333-3-333|
B|---------------------------------|---------------------------------|
e|---------------------------------|---------------------------------|

Rythm guitar plays main riff again at 1:32

1:32 Heavily distorted guitar
    E7                                C7                       Bb7
E|----------------|               E|----------------|      E|----------------|
A|----------------|               A|3---------------|      A|1---------------|
D|:2-----------x6:|               D|--5-------------|      D|--3-------------| Play E7 2 times 
G|:--4-----------:|               G|-------3--------|      G|-------1--------| at 2:35
B|-------3--------|               B|----5-----------|      B|----3-----------|
e|----4-----------|               e|----------------|      e|----------------|

2:35 Heavy rythm guitar
E|----------------------------------------|
A|-------------------------------0-1-2----|
D|:0h22-2-220h222-2220h22-2--222-------0-:| Repeat until 3:52
G|:-------------------------------------0:|
B|----------------------------------------|
e|----------------------------------------|

3:52 Heavy rythm guitar
|  E|5-5-5--5--5-5-5-5-5--5--5-5--8-8-8--8--8-8-8-8-8--8--8-8-|
|  A|7-7-7--7--7-7-7-7-7--7--7-7--101010-10-1010101010-10-1010|
|: D|---------------------------------------------------------|
|: G|---------------------------------------------------------|
|  B|---------------------------------------------------------|
|  e|---------------------------------------------------------|

   E|--------------------------------------|  |
   A|-------------------------------0-1-2--|  |
   D|0h22-2-220h222-2220h22-2--222-------0-| :| Repeat once
   G|-------------------------------------0| :|
   B|--------------------------------------|  |
   e|--------------------------------------|  |

4:23 Heavy rythm guitar
E|----------------|------------------------------------|
A|----------------|------------------------------------|
D|0h22-2~~Let ring|--------------   At 4:30   ---------|
G|----------------|------------------------------------|
B|----------------|--------------------------12-12-----|
e|----------------|-------------------------------12-12|

~~~~~~~~~~~~~~~~~~~~~~~~~~~~~~~~~~~~~~~~~~~~~~~~~~~~~~~~~~~~~~~~

Thank you for looking at my tab, please rate it a 5! Helps a lot :)
Contact me if you have issues. 
Tap to rate this tab
# A B C D E F G H I J K L M N O P Q R S T U V W X Y Z