Song name
# A B C D E F G H I J K L M N O P Q R S T U V W X Y Z

Steven Wilson - Significant Other tab

-------------------------------------------------------------------------------
                             SONG NAME - Band Name
-------------------------------------------------------------------------------
Tabbed by:
E-mail:

Tuning: Standard

Verse:

e|------------5-----------------5--------------8------------8-------------------|
B|-------7----------------7--------------10-----------10------------------------|
G|---------6----------------6---------------9------------9----------------------|
D|------------------------------------------------------------------------------|
A|-5------------------5---------------8------------8----------------------------|
E|------------------------------------------------------------------------------|

e|------------2-----------------2--------------0-------------0------------------|
B|-------4----------------4--------------2-------------2------------------------|
G|---------3----------------3---------------1-------------1---------------------|
D|------------------------------------------------------------------------------|
A|-2------------------2---------------0------------0----------------------------|
E|------------------------------------------------------------------------------|


Chorus:

e|------5---------5---------4---------4---------3---------3---------2---------2-|
B|--7---------5---------5---------4---------4---------3---------3---------2-----|
G|----6---------6---------6---------5---------5---------4---------4---------3---|
D|------------------------------------------------------------------------------|
A|-5----------------4-------------------3-------------------2-------------------|
E|--------5-------------------4-------------------3-------------------2---------|



************************************

| /   slide up
| \   slide down
| h   hammer-on
| p   pull-off
| ~   vibrato
| +   harmonic
| x   Mute note
| b   Bend
| pb  Pre-bend
| br  Bend release
| pbr Pre-bend release
| brb Bend release bend

************************************
Tap to rate this tab
# A B C D E F G H I J K L M N O P Q R S T U V W X Y Z