Song name
# A B C D E F G H I J K L M N O P Q R S T U V W X Y Z

Steven Wilson - Deform To Form A Star tab

Such a beautiful solo, might add the second guitar break later on!

Tabbed this using the actual song and some videos to figure out positions, I think 
everything is in order although
any comments or corrections are more than welcome, have fun!

e|---------------------------------------------------------------|
B|-------------------------------7h8p7---------------------------|
G|-11h12p11-9-7-7-6--7--6--6-7-9-------9-7-6---------------------|
D|-------------------7--7--------------------9-8-8h9-8-8h9-------|
A|---------------------------------------------------------------|
E|---------------------------------------------------------------|

e|-----------------------9-12p9-9--------------------------------|
B|--------------------10----------10-12--------------------------|
G|---7/9-9-9\6---6----------------------9-9h11p9-----------------|
D|-9-----------7-------------------------------------------------|
A|---------------------------------------------------------------|
E|---------------------------------------------------------------|

e|---------------------------------------------------------------|
B|---12---12-11--------------10---10-9-----------8---8-7---------|
G|-9----9-------11-11-11---9----9------9-9-9---9---9-----7-7-7---|
D|---------------------------------------------------------------|
A|---------------------------------------------------------------|
E|---------------------------------------------------------------|

e|---------------------------------------------------------------|
B|------9h10p9----9h10h12/14-12-10-9-----------------------------|
G|-9-11--------11--------------------11-9-9/11--9/11-------------|
D|---------------------------------------------------------------|
A|---------------------------------------------------------------|
E|---------------------------------------------------------------|
Tap to rate this tab
# A B C D E F G H I J K L M N O P Q R S T U V W X Y Z