Song name
# A B C D E F G H I J K L M N O P Q R S T U V W X Y Z

Steven Wilson - Drive Home tab

-------------------------------------------------------------------------------
                             Drive Home - Steven Wilson
-------------------------------------------------------------------------------
Tabbed by: Michael H.
E-mail: atomicdamage@hotmail.de

Tuning: standard

e|-----------------------------------------------------|
B|-----------------------------------------------------|
G|-9-11h12-11-9h7-9-7h5-7------------------------------|
D|------------------------7-9--------------------------|
A|-----------------------------------------------------|
E|-----------------------------------------------------|

e|-----------------------------------------------------|
B|-----------------------------------------------------|
G|-9-11h12-11-9h7-9-7h5-7-9-9h11-----------------------|
D|-----------------------------------------------------|
A|-----------------------------------------------------|
E|-----------------------------------------------------|

e|-----------------------------------------------------|
B|-----------------------------------------------------|
G|-9-11h12-11-9h7-9-7h5-7-----9-11-11h12-11-9----------|
D|------------------------7-9-----------------9--------|
A|-----------------------------------------------------|
E|-----------------------------------------------------|

************************************

| /   slide up
| \   slide down
| h   hammer-on
| p   pull-off
| ~   vibrato
| +   harmonic
| x   Mute note
| b   Bend
| pb  Pre-bend
| br  Bend release
| pbr Pre-bend release
| brb Bend release bend

************************************
Tap to rate this tab
# A B C D E F G H I J K L M N O P Q R S T U V W X Y Z