Song name
# A B C D E F G H I J K L M N O P Q R S T U V W X Y Z

Steven Wilson - Drive Home tab

Ok so this is the intro AND the middle section to the song... the one posted was a bit 
off so I decided to help a bit.
For the complete experience someone else posted the chords so I'll leave him to it! I 
think they sound nice :)

e|---------------------------------------|
B|---------------------------------------|
G|-9--11-12-11--9----9-------------------|
D|----------------12----12-10-9--10--9---|
A|---------------------------------------|
E|---------------------------------------|

e|-----------------------------------------|
B|-----------------------------------------|
G|-9--11-12-11--9----9------------9--9/11--|
D|----------------12----12-10-12-----------|
A|-----------------------------------------|
E|-----------------------------------------|

e|---------------------------------------------------------|
B|---------------------------------------------------------|
G|-9--11-12-11--9----9------------------8/11-11--11\8------|
D|----------------12----12-10-9--10--9-----------------9---|
A|---------------------------------------------------------|
E|---------------------------------------------------------|


And in the bridge before the solo, those three bars are played once more, and this 
(beautiful) melody comes in.

e|----------------------------------------------------------------|
B|-----12-13------------------------------------------------------|
G|---13------14-12-11--9-8-----------9-9/11-11/12-12\8-8/9-9--9---|
D|-14----------------------10------9------------------------------|
A|----------------------------9--9--------------------------------|
E|----------------------------------------------------------------|

e|------------------------------------------------------------------------|
B|-----12-13-----------------12-------------------------------------------|
G|---13------14-12-11--12/14----14-12-11----------11--12---------12--11---|
D|-14-------------------------------------13--14----------10--9-----------|
A|------------------------------------------------------------------------|
E|------------------------------------------------------------------------|

The solo is extremely beautiful and I hope someone can tab it, I sure as hell can't get 
those pesky fast parts!
Any comments or suggestions are more than welcome, good luck and have fun!
Tap to rate this tab
# A B C D E F G H I J K L M N O P Q R S T U V W X Y Z