Song name
# A B C D E F G H I J K L M N O P Q R S T U V W X Y Z

Steven Wilson - The Raven That Refused To Sing tab

So, this is a piano song, but has bits of guitar... really fun (though depressing) song, 
so enjoy it!
Be sure to post any comments and don't forget to rate!

2:38
e|-8---6-----------------8---6-----------------|
B|---8---6-----------------8---6-5-------------|
G|---------8--5--7--8---------------5--7--12---|
D|---------------------------------------------|
A|---------------------------------------------|
E|---------------------------------------------|

3:53
This part is repeated twice, with the endings being outlined below, the bend in the D 
note is a quarter bend.
e||-------------------------------------------------------|
B||-------------------------------------------------------|
G||O--9---10---12---17---12---10---9---10---12---7b---5---|
D||O------------------------------------------------------|
A||-------------------------------------------------------|
E||-------------------------------------------------------|

e|-------------------------------------------------------||
B|-------------------------------------------------------||
G|-9---10---12---17---12---10---9---10---12---7---------O||
D|------------------------------------------------------O||
A|-------------------------------------------------------||
E|-------------------------------------------------------||

1.
e|-----------------------------------------------------|
B|-----------------------------------------13----------|
G|-8---9---10---12-------------------------------------|
D|------------------------------------10---------------|
A|-----------------------------------------------------|
E|-----------------------------------------------------|

2.
e|-----------------------------------------------------|
B|-------------------6p4-6/8------------------8--------|
G|-8---9---10---12-----------7b-5-----5h7-7/9---9------|
D|--------------------------------5h7------------------|
A|-----------------------------------------------------|
E|-----------------------------------------------------|


e||-------------------------------------------------------|
B||-------------------------------------------------------|
G||O--9---10---12---17---12---10---9---10---12---7b---5---|
D||O------------------------------------------------------|
A||-------------------------------------------------------|
E||-------------------------------------------------------|

e|-----------------------------------------------------|
B|-----------------------------------------------------|
G|-9---10---12---17---12---10---9---10---12---7--------|
D|-----------------------------------------------------|
A|-----------------------------------------------------|
E|-----------------------------------------------------|

e|-----------------------------------------------------||
B|-----------------------------------------------------||
G|-8---9---10---12------------8---9---10---5----------O||
D|----------------------------------------------------O||
A|-----------------------------------------------------||
E|-----------------------------------------------------||


Steven enters here with an electric guitar playing basically the same notes although in 
octaves and in tremolo
picking, changing the pattern until the end... I'm not sure if in the studio version 
this happens,
but live Guthrie continues playing the last three bars (the ones above) also in tremolo picking,
ending with a repeat of the final four notes

e|---12--13---15---20---15---13---12--13---15---10--8-----|
B|--------------------------------------------------------|
G|---9---10---12---17---12---10---9---10---12---7---5-----|
D|--------------------------------------------------------|
A|--------------------------------------------------------|
E|--------------------------------------------------------|

e|-12--13---15---20---15---13---12--13---15---10-------|
B|-----------------------------------------------------|
G|-9---10---12---17---12---10---9---10---12---7--------|
D|-----------------------------------------------------|
A|-----------------------------------------------------|
E|-----------------------------------------------------|

e|-11--12--13---15------------16---17---13---12--------|
B|-----------------------------------------------------|
G|-8---9---10---12------------13---14---10---9---------|
D|-----------------------------------------------------|
A|-----------------------------------------------------|
E|-----------------------------------------------------|

e|-15------17------------18------20--------------------|
B|-----------------------------------------------------|
G|-12------14------------15------17--------------------|
D|-----------------------------------------------------|
A|-----------------------------------------------------|
E|-----------------------------------------------------|
Tap to rate this tab
 
# A B C D E F G H I J K L M N O P Q R S T U V W X Y Z