Song name
# A B C D E F G H I J K L M N O P Q R S T U V W X Y Z

Stevens Cat - Morning Has Broken tab

Cat Stevens
Morning has broken
tabbed by Dieter Oberholster

i converted the piano part into guitar. its fun 2 play

standard tunning


intro

      D             G              A                 F#             Bm
-2---------2--------3-------3-2----0--------0--------2-------2-0------------2------|
----3---3----3------------0--------------2---2-------------2--------3-----3---3----|
------2--------2--------0--------------2-------2---------3--------------4-------4--|
-0--------------------0--------------2-----------------4--------------4------------|
-----------------------------------0--------------------------------2--------------|
--------------------3--------------------------------2-----------------------------|


 G7             C               F               C
-1-------1------0--------0------1-------1-------0----------------------------------|
-------0---0----------1----1----------1---1-----1----------------------------------|
-----0--------------0--------0------2-------2---0----------------------------------|
---0--------------2----------------3------------2----------------------------------|
----------------3-------------------------------3----------------------------------|
-3------------------------------1---------------0----------------------------------|
Tap to rate this tab
# A B C D E F G H I J K L M N O P Q R S T U V W X Y Z