Song name
# A B C D E F G H I J K L M N O P Q R S T U V W X Y Z

Stevie B - Dream About You tab

tabbed by: Jei
E-mail: molecules_01@ymail.com

Tuning: Standard

This is my first Tab so it may be a little bit rough round the edges but you got 
to start somewhere! 
I have done this all by ear because I couldn't wait for someone else to do a tab 
hahah :D 

[Intro]
         Guitar 1 - G-D-Em-C-D7-G   2X


         Guitar 2

 e|--------10^--------------------7/8--7-----------------------------|
 B|--12/13----13\12--10--7/8--10----------10---8\7/8----10--10-------|
 G|------------------------------------------------------------------|
 D|------------------------------------------------------------------|
 A|------------------------------------------------------------------|
 E|------------------------------------------------------------------|

 e|--------10^--------------------7/8--7-----------------------------|
 B|--12/13----13\12--10--7/8--10----------10---8\7/8----10--10-------|
 G|------------------------------------------------------------------|
 D|------------------------------------------------------------------|
 A|------------------------------------------------------------------|
 E|------------------------------------------------------------------|

 
 [Verse]
          Guitar 1
  G                 D      
There was a time in my life
            Em            C
when I opened my eyes
       D7
and there you were 
G                                 D
You were more than a dream 
                                 Em      
I could reach out and touch you, girl
              C     D7
that was long ago
C              D7
There are some things 
         G                     Em
that I guess I'll never know
C               
When you love someone 
                D7
you got to learn to let them go


          Guitar 2
 e|--------10^--------------------7/8--7-----------------------------|
 B|--12/13----13\12--10--7/8--10----------10---8\7/8----10--10-------|
 G|------------------------------------------------------------------|
 D|------------------------------------------------------------------|
 A|------------------------------------------------------------------|
 E|------------------------------------------------------------------|

 e|---------8---10--10/12\10--10------------------------------------------|
 B|-8\7--10----------------------8-10--10/12--12^--10--8---8\7/8---10--10-|
 G|-----------------------------------------------------------------------|
 D|-----------------------------------------------------------------------|
 A|-----------------------------------------------------------------------|
 E|-----------------------------------------------------------------------|
 
 e|-----10/12-12--10-------------------------------------------------|
 B|------------------10-----10--12--12^---10-------------------------|
 G|----------------------12-------------------12---------------------|
 D|------------------------------------------------------------------|
 A|------------------------------------------------------------------|
 E|------------------------------------------------------------------|

 e|-----10/12-12--10-------------------------------------------------|
 B|------------------10-10----8-7-8----12/15--15-15---15/17/19-------|
 G|------------------------------------------------------------------|
 D|------------------------------------------------------------------|
 A|------------------------------------------------------------------|
 E|------------------------------------------------------------------|

  
  [Chorus]


         Guitar 1

             Em       Am  
When I dream about you
                   D7                 G
That's when everything's alright
                     Em                       Am    C  D7
You're in my arms, here next to me, forever 
              Em      Am                     D              G
When I dream about you, girl you never go away 
                     Em                       Am       
Just close my eyes , wait for my dreams 
          C     D     D7     G
Cause I still love loving you.





         Guitar 2

 e|----------------------------------------------------------------------|
 B|--17-19-20----------15-17-19-20-19-17<15^-----------------------------|
 G|-----------17-16-17-----------------------16-17-19-21---21-19-17-16---|
 D|----------------------------------------------------------------------|
 A|----------------------------------------------------------------------|
 E|----------------------------------------------------------------------|
 
 e|----------------------|
 B|----------------------|
 G|----------------------|
 D|---16-17-19-21--19----|
 A|----------------------|
 E|----------------------|




 e|----------------------------------------------------------------------|
 B|--17-19-20^----------15-17-19-20-19-17<15^----------------------------|
 G|-----------17-16-17-----------------------16-17-19-21---21-19-17-16---|
 D|----------------------------------------------------------------------|
 A|----------------------------------------------------------------------|
 E|----------------------------------------------------------------------|
 
 e|------------------------------|
 B|------------------------------|
 G|------17--16------------------|
 D|---17----------19-----17-16-17|
 A|------------------------------|
 E|------------------------------|

 Verse 2
 Chorus
 

 Bridge

 e|---x-x---xx---x/x----x--|      e|-----77777------|
 B|---x-x---xx---x/x----x--|      B|-----77777------|
 G|---4/6---77---5/7----5--|      G|-----77777------|
 D|---5/7---77---5/7----5--|  x4  D|-----xxxxx------|
 A|---5/7---55---3/5----3--|      A|-----xxxxx------|
 E|---3/5---xx---x/x----x--|      E|-----xxxxx------|

 Chorus


[END]
Tap to rate this tab
# A B C D E F G H I J K L M N O P Q R S T U V W X Y Z