Song name
# A B C D E F G H I J K L M N O P Q R S T U V W X Y Z

Stevie Nicks - Edge Of Seventeen tab

-------------------------------------------------------------------------------
                         Edge of Seventeen- Stevie Nicks
-------------------------------------------------------------------------------
Tabbed by: Sovaso

Tuning: Standard

S= sixteenth notes
E= Eighth notes
Q= quarter notes
h= half notes
dh= Dotted half note (3 beats)
W= Whole notes

This is the song Edge of Seventeen.
Thanks! Enjoy!

Guitar 1

Intro
      * * * * * * * * * * * * * * * * * * * * * * * * * * * * * * * *
      s s s s s s s s s s s s s s s s s s s s s s s s s s s s s s s s
e|---------------------------------------------------------------------------|
B|---------------------------------------------------------------------------|
G|---------------------------------------------------------------------------|
D|---------------------------------------------------------------------------|
A|-----7-7-7-7-7-7-7-7-7-7-7-7-7-7-7-7-7-7-7-7-7-7-7-7-7-7-7-7-7-7-7-7-------|
E|---------------------------------------------------------------------------|

 Main Rhythm Riff

   * * * * * * * * * * * * * * * * * * * * * * * * * * * * * * * *
   s s s s s s s s s s s s s s s s s s s s s s s s s s s s s s s s
e|---------------------------------------------------------------------------|
B|---------------------------------------------------------------------------|
G|---------------------------------------------------------------------------|
D|---------------------------------------------------------------------------|
A|-7-7-7-7-7-7-7-7-7-7-7-7-7-7-7-7-7-7-7-7-7-7-7-7-7-7-7-7-7-7-7-7-----------|
E|---------------------------------------------------------------------------|

   * * * * * * * * * * * * * * * * * * * * * * * * * * * * * * * *
   s s s s s s s s s s s s s s s s s s s s s s s s s s s s s s s s
e|---------------------------------------------------------------------------|
B|---------------------------------------------------------------------------|
G|---------------------------------------------------------------------------|
D|---------------------------------------------------------------------------|
A|-3-3-3-3-3-3-3-3-3-3-3-3-3-3-3-3-5-5-5-5-5-5-5-5-5-5-5-5-5-5-5-5-----------|
E|---------------------------------------------------------------------------|

Guitar 1 repeats the rhythm riff throughout the entire song till the very end


Guitar 2

After 12 times of the main rhythm riff guitar 2 goes:




     Q  Q  Q  S S S S  Q  Q  Q S S S S   DH   E S S  Dh   S S S S
e|---------------------------------------------------------------------------|
B|---x--x--x--x-x-x-x--x--x--x-x-x-x-x---5----5-x-x--7----7-7-x-x------------|
G|---x--x--x--x-x-x-x--x--x--x-x-x-x-x---5----5-x-x--7----7-7-x-x------------|
D|---x--x--x--x-x-x-x--x--x--x-x-x-x-x---5----5-x-x--7----7-7-x-x------------|
A|---x--x--x--x-x-x-x--x--x--x-x-x-x-x---3----3------5----5-5-x-x------------|
E|---------------------------------------------------------------------------|


   DH    Q      W       DH     E s s  Dh     Q
e|---------------------------------------------------------------------------|
B|-8-----8------8-------5------5------7------7-------------------------------|
G|-9-----9------9-------5------5-x-x--7------7-------------------------------|
D|-9-----9------9-------5------5-x-x--7------7-------------------------------|
A|-7-----7------7-------3------3-x-x--5------5-------------------------------|
E|---------------------------------------------------------------------------|

After 24 times of the main rhythm riff (From the beginning, 11 times from the first 
guitar 2 riff) Guitar 2 goes

   E  S S S S S S S S  E S S S S  W
e|---------------------------------------------------------------------------|
B|-8--8-8-8-8-8-8-8-8--8-8-8-8-8--8------------------------------------------|
G|-9--9-9-9-9-9-9-9-9--9-9-9-8-9--9------------------------------------------|
D|-9--9-9-9-9-9-9-9-9--9-9-9-9-9--9------------------------------------------|
A|--------------------------------7------------------------------------------|
E|---------------------------------------------------------------------------|


That Pretty much It! Rate and Comment



************************************

| *   Palm mute
| /   slide up
| \   slide down
| h   hammer-on
| p   pull-off
| ~   vibrato
| +   harmonic
| x   Mute note
| b   Bend
| pb  Pre-bend
| br  Bend release
| pbr Pre-bend release
| brb Bend release bend

************************************
Tap to rate this tab
 
# A B C D E F G H I J K L M N O P Q R S T U V W X Y Z