Guitaretab - guitar tabs
Song name
# A B C D E F G H I J K L M N O P Q R S T U V W X Y Z

Stevie Nicks - Edge Of Seventeen tab

you can either use 2nd fret on your third string or 7th on your 2nd string. This is my 
tab so it probably isn't that good. errors send to me at kspence444@aim.com
e|---------------------------------------------------------------------------|
B|---------------------------------------------------------------------------|
G|---------------------------------------------------------------------------|
D|2---2-2-2----2-2-2----2-2-2---2-2-2---2-2-2---2-2-2---2-2-2---2-2-2---2-2-2|
A|---------------------------------------------------------------------------|
E|---------------------------------------------------------------------------|
[ Tab from: http://www.guitaretab.com/s/stevie-nicks/57715.html ]
e|---------------------------------------------------------------------------|
B|---------------------------------------------------------------------------|
G|---------------------------------------------------------------------------|
D|-2-2-2---2-2-2---2-2-2---2-2-2---2-2-2---2-2-2---2-2-2---2-2-2-------------|
A|------------------------------------------------------------------3-3-3----|
E|---------------------------------------------------------------------------|

e|---------------------------------------------------------------------------|
B|---------------------------------------------------------------------------|
G|---------------------------------------------------------------------------|
D|-------------------------0-0-0---0-0-0---0-0-0---0-0-0---2-2-2---2-2-2---2-|
A|-3-3-3---3-3-3---3-3-3-----------------------------------------------------|
E|---------------------------------------------------------------------------|
Related for Edge Of Seventeen tab
Advertisement will be closed in 10 seconds