Song name
# A B C D E F G H I J K L M N O P Q R S T U V W X Y Z

Stevie Ray Vaughan And Double Trouble - Cold Shot tab

This is only the ryhtm to the song and I learned it by ear so if it is a little off I am sorry.

/-Slide
b-bend
*-mute
~-ring
intro
E------------------7~----------------------|
B-------------7~---------------------------|
G-------------7~---------------------------|   repeat 3 times
D*-7b-5-7----------------------------------|
A------------------------------------------|
E------------------------------------------|

E------7--5~--------7--5~------------------|
B------7--5~--------7--5~------------------|
G------7--5~--------7--5~------------------|
D-5-7----------5-7-----------5-7-----------|
A------------------------------------------|
E------------------------------------------|

verse 1
E----------7~----------7-----------------|
B----------7~----------7-----------------|
D----------7~----------7-----------------|     repeat thro verse
G--7-5-7--------7-5-7--------------------|
A----------------------------------------|
E----------------------------------------|

 chorus
E--------14-12~------------7-5~---------------------------|
B--------14-12~------------7-5~-----------7-7-7~---7-7-7~-|
D--------14-12~--12/-------7-5~--14-12----7-7-7~---7-7-7~-|
G-/14-12---------14/---7-5-------14-12----6-6-6~---6-6-6~-|
A-----------------------------------------7-7-7~---7-7-7~-|
E---------------------------------------------------------|


verse 2 same as verse one

then you have the chorus which is the same
now comes the solo which i havnt got yet

verse 3

outro

E-----7--5----------------7--5--------------------------7--5-------------|
B-----7--5----------------7--5--------------------------7--5-------------|
G-----7--5----------------7--5--------------------------7--5-------------|
D------------------------------------------------------------------------|
A------------------------------------------------------------------------|
E------------------------------------------------------------------------|
I really ment i was sorry      for ever causein you pain

E----------------------------7--5-----------------------------12/-----------|
B----------------------------7--5-----------------------------12/-----------|
G----------------------------7--5-------------------------------------------|
D---------------------------------------------------------------------------|
A---------------------------------------------------------------------------|
E---------------------------------------------------------------------------|
you showed you appriciation        by walkin out anyway

slide back to the 7th fret and start the chorus again and thats it. If anyone knows the 
fill free to add it. and if i left something out or didnt do something right let me 
this is my first time writin a tab!

rock on!!!
Tap to rate this tab
# A B C D E F G H I J K L M N O P Q R S T U V W X Y Z