Song name
# A B C D E F G H I J K L M N O P Q R S T U V W X Y Z

Stevie Ray Vaughan - Leave My Little Girl Alone tab

\=slide
b=bend whole step
rs=sustain note but bend back down to original note
p=pulloff
h=hammer on
v=vibrato

E|-----------------------------------------------------------------|
B|-----------13-----13-13----13-----13-13---13------------\--------|
G|-----------12h14--14-14----12h14--14-14---12h14p12------\--------|
D|--------------------------------------------------14----\--------|
A|-----------------------------------------------------------------|
E|-----------------------------------------------------------------|
-
E|---------------------------------------------------------------------------|
B|-----------13-----13-13----13-----13-13---13------------7b-rs-7p5---5v-----|
G|-----------12h14--14-14----12h14--14-14---12h14p12----------------7----7---|
D|--------------------------------------------------14/----------------------|
A|---------------------------------------------------------------------------|
E|---------------------------------------------------------------------------|

Here he goes into solo in the key of A major. It's better to play your own improvised solo.
Tap to rate this tab
 
# A B C D E F G H I J K L M N O P Q R S T U V W X Y Z