Song name
# A B C D E F G H I J K L M N O P Q R S T U V W X Y Z

Stevie Ray Vaughan - Couldnt Stand The Weather tab

eb|--7-------------------------------------|------------------------------|
Bb|--7-------------------10----------------|------------------------------|
Gb|--7------7-9p7---9/11----9/10\9-7----9--|---7---7----------------------|
Db|--9--(9)-------9-------------------9----|-----9-7B--7------------------|
Ab|--9-------------------------------------|-------------9-8-7---5--(5)\--|
Eb|--7-------------------------------------|------------------------------|

eb|--x-----------------------5-------------|------------------------------|
Bb|--5---------------------5---8-5---------|------------------------------|
Gb|--6----------------5-7B---------7brp5---|---5~~~~----------------------|
Db|--5------------5-7--------------------7-|---------5h7---5h7---5tr7-----|
Ab|--7----3-5-6-7--------------------------|------------------------------|
Eb|--5--5----------------------------------|------------------------------|

eb|--x-----------3------------------------------------|--x--9---9---9~~~--|
Bb|--3---------3---6-3--------------------------------|--2--10--10--10~~--|
Gb|--4----3-5B---------5brp3---3h5-3---3--------------|--3--9---9---9~~~--|
Db|--3--5--------------------5-------5-3br--5---------|--2--8---8---8~~~--|
Ab|--5----------------------------------------5-4-3-1-|--4----------x-----|
Eb|--3------------------------------------------------|--2----------x-----|

eb|------------------------------------------------------|
Bb|------------------------------------------------------|
Gb|------------------------------------------------------|
Db|------------------------------------------------------|[x4]
Ab|---5--3--5----------------3---5--3--5-----------------|
Eb|-------------1--3---4--5------------------2--3--4--5--|


eb|------x---------13-13-13-13-13----------12br-10------------------------|
Bb|-------x--------x--x--x--x--x---10------12br-10------------------------|
Gb|--19----x-------10-10-10-10-10--10--x-x-12---10------10/11-11-------12-|
Db|--19-----x--------------------------x-x---------12-x--9/10-10-------12-|
Ab|----------x------------------------------------------------------------|
Eb|-----------12\------------------------------------------------10-10----|

---------------------------------------------------------------|
------12---10-(10)B--------------------------------------------|
-x-12-12---10-(10)B-------------------------------------10/11--|
-x-12-12-------------12p10-x--x-x-x--10---10B-12---------9/10--|
---------------------------12-x-x-x----------------------------|
-------------------------------------------------10--10--------|

|-----------------------------------------------|
|---------12-12-12-12---------12--12-10---------|
|---------12-12-12-12---------12--12-10---------|
|---------12-12-12-12---------12--12-10--12--10-|
|-----------------------------------------------|
|--10-10---------------10-10--------------------|
Tap to rate this tab
 
# A B C D E F G H I J K L M N O P Q R S T U V W X Y Z