Song name
# A B C D E F G H I J K L M N O P Q R S T U V W X Y Z

Stevie Ray Vaughan - Empty Arms tab

Hey whats up everyone, my guitar teacher tabbed this song out for me.  So I decided to 
it only because i couldn't find a good one.  Hope you guys like it.

-Zach

Tabbed by James Messina

E|----------8---------8------8-|----------8---------8------8-|
B|--------8----11b13-----11--8-|--------8----11b13-----11--8-|
G|----8h9----------------------|----8h9----------------------|
D|-----------------------------|-----------------------------|
A|-----------------------------|-----------------------------|
E|-----------------------------|-----------------------------|

E|----------8--------8-8---------8-8---------8-8---------8-8-|
B|--------8----11b13------11b13-------11b13--------11b13-----|
G|----8h9----------------------------------------------------|
D|-----------------------------------------------------------|
A|-----------------------------------------------------------|
E|-----------------------------------------------------------|

E|------------------------------------------|
B|------------------------------------------|
G|------10b12rb10p8-----8-9-----------------|
D|-------------------10------10-8----8-9-10-|
A|--------------------------------10--------|
E|------------------------------------------|


E|---------------------------|-------------------------------------|
B|----10--8s10s8-8--10-10----|----------------10-x-8s10s8--10-10-8-|
G|----10--8s10s8-8--10-10--8-|---10-8----8h9---x-x-xs10s8--10-10-8-|
D|----10--8s10s8-8--10-10----|--------10------10-x-8s10s8--10-10-8-|
A|-8-------------------------|-------------------------------------|
E|---------------------------|-------------------------------------|


E|--------------|---------------------------|
B|--------------|-12--10s12s10-------10-----|
G|--------------|-12--10s12s10-------10-8---|
D|--------------|-12--10s12s10-------10-----|
A|--7-8-9-10-10-|---------------8-8---------|
E|--------------|---------------------------|

E|-------------------------------------|
B|----------------10-x-8s10s8--10\-----|
G|---10-8----8h9---x-x-xs10s8--10\-----|
D|--------10------10-x-8s10s8--10\-----|
A|-------------------------------------|
E|-------------------------------------|

E|-------------------------------------|
B|-------------------------------------|
G|-----------8h9-9--8h9-9--------------|
D|----10-10---------------10-----------|
A|-------------------------------------|
E|-------------------------------------|

E|------------------8---------8---------------------|
B|---10-x-8s10-----8----11b13---11-8----------------|
G|---10-x-8s10------------------------10b12rb10--8v-|
D|---10-x-8s10--10----------------------------------|
A|--------------------------------------------------|
E|--------------------------------------------------|

E|------------------------|----8------8-------8-------8-------8---11v-|
B|---10-x-8s10s8--10\-----|---8--11b13-8-11b13-8-11b13-8-11b13-8------|
G|----x-x-xs10s8--10\-----|-------------------------------------------|
D|---10-x-8s10s8--10\-----|-10----------------------------------------|
A|------------------------|-------------------------------------------|
E|------------------------|-------------------------------------------|

E|--8----------------------------------8---------8--------------------|
B|----11-8---------------------------8----11b13-----------------------|
G|---------10b12rb10p8-------8-10b12-----------------10b12rb10-8------|
D|---------------------10-10------------------------------------------|
A|--------------------------------------------------------------------|
E|--------------------------------------------------------------------|


E|------------------------|------------------10b12p8-------8-----------|
B|---10-x-8s10s8--10\-----|-----------10b12p8--------10-8---8----------|
G|----x-x-xs10s8--10\-----|--------8-------------------------8---------|
D|---10-x-8s10s8--10\-----|----8h9-------------------------------------|
A|------------------------|-10---------------------------------10------|
E|------------------------|--------------------------------------------|

                                      RAKE               TWO TIMES
E|-----------8-----------8-8-x-10-x-8--8---------|-11-11-8--8-10-8-|
B|---------8-----------8-8-8-x-10-x-8---8--------|-10-10--10-------|
G|---10b12-----10-8h9----------10-x-8----8-------|-11-11-----------|
D|----------------------------------------8------|-----------------|
A|-----------------------------------------10-10-|-----------------|
E|-----------------------------------------------|-----------------|


thats what i've got so far

i'll finish later

-Zach
Tap to rate this tab
 
# A B C D E F G H I J K L M N O P Q R S T U V W X Y Z