Song name
# A B C D E F G H I J K L M N O P Q R S T U V W X Y Z

Stevie Ray Vaughan - Hug You Squeeze You tab

     -------------------------------------------------------------------------------
            Hug You, Squeeze You- Stevie Ray  Vaughan & Double Trouble
                           From Live At The EL MOCAMBO

-------------------------------------------------------------------------------
Tabbed by:Dan Plimmer
Email:djplimmer@hotmail.com

 The version i did before sounded similar but not similar enough. Here is what I think 
better and what I think is closer to the actual playing.

Tuning: Eb

 u= up pick      m= Mute string(s) immediately after note(s) is heard.

 bd= Ben string(s) downwards.

    u         u                                   u

e|--1--1------1-----------------------------------1-----------------------]
B|--1--1h3p1--1---4------------1---3bd--3--1------1------1-----1-----1----]
G|-------------------1---------1---3bd--3--1----------1/2---1/2---1/2-----]
D|-----------------------3~~------------------3---------------------------]
A|------------------------------------------------------------------------]
E|------------------------------------------------------------------------]

                      m
                u     u
e|--------------1--x--1-----]
B|--------------1--x--1-----]
G|--1/2------------x--------]
D|-------3~~-------x--------] x3
A|-----------------x--------]
E|-----------------x--------]

 The Rythm played When he is singing is;
               m        m   m
       u       u        u   u
e|-----1---x---1--------1--1--]
B|-----1---x---1--------1--1--]
G|---------x------------------]
D|---------x------------------]
A|---------x------------------]
E|---------x--------0---------]

 The Rythm In Between Each Line;

     u       u        u       u        u       u
e|---3---3---1---1----1---3---1--------3---3---1---1-----------]
B|---3---3---1---1----1---3---1--------3---3---1---1-----------]
G|---3---3---1---1h2--1---3---1--------3---3---1---1h2p1h2p1---]
D|-------------------------------3~~~--------------------------]
A|-------------------------------------------------------------]
E|-------------------------------------------------------------]

This is the chord used when he's singing the main bit( I wanaa......)

e|---1------]
B|---3------]
G|---2------]
D|---3------]
A|---x------]
E|---x------]

 Have the Fret/Middle pickup selected for more similar sound.
Tab is probably not 100% cxorrect as im not very good, but listen to the dvd or mp3 and 
what you think is wrong.

| /  slide up
| \  slide down
| h  hammer-on
| p  pull-off
| ~  vibrato
| +  harmonic
| x  Mute note
Tap to rate this tab
 
# A B C D E F G H I J K L M N O P Q R S T U V W X Y Z