Guitaretab - guitar tabs
Song name
# A B C D E F G H I J K L M N O P Q R S T U V W X Y Z

Stevie Ray Vaughan - Life Without You tab

Song: Life Without You (live)
Author/Artist: Stevie Ray Vaughan
Album: In Step (Remastered)

Tabbed by: Spencer Lyons

Key: 
h = hammer-on 
p = pull-off 
b = bend to indicated tone 
r = return bend 
/ = slide up
\ = slide down 
x = mute
^ = bend up to indicated tone and back (on one pluck of the string) 
o=open
RG= let ring
k= kill
~= vibrato 
					               
e|---------5----5---5-----5-----------------------------------|
B|---------5h7--5---5-----5-----------------------------------|
G|------------------5h6---5h6p5-------------------------------|
D|-------------------------------7------7-9--9^7--9^7--9^7----|
A|----------------------------------/9------------------------|
E|----/5------------------------------------------------------|
			      A	    A
e|----------------------------5-----5---------5---------------|
B|----------------------------5-----5----5----5---5-----------|
G|-----------------2h4-2------6-RG--6-k--6h7------6h7p6-------|
D|-----------------------4----7-RG--7-k-----------------7-----|
A|---------o-2-3-o------------7-----7-------------------------|
E|--o-1-2---------------------5-----5-------------------------|
Note: Hold the A wile you play what is above after the kills. 
		    
	         
e|--17\ -----------------------------------------------|
B|-------7--5------------------------------------------|
G|-------------4b--2--------4h2-----2h4--2-------2-----|
D|--------------------2--4------4-----------4--2-------|
A|-----------------------------------------------------|
E|-----------------------------------------------------|
    A     A
e|--5-----5----------------5-k----|
B|--5-----5----5-----------5-k----|
G|--6-RG--6-k--6h7----------------|
D|--7-RG--7-k--7----7-5-7---------|
A|--7-----7-----------------------|
E|--5-----5-----------------------|
Note: Hold the A wile you play what is above after the kills. 



	         
e|--17\ -----------------------------------------------|
B|-------7--5------------------------------------------|
G|-------------4b--2--------4h2-----2h4--2-------2-----|
D|--------------------2--4------4-----------4--2-------|
A|-----------------------------------------------------|
E|-----------------------------------------------------|
[ Tab from: http://www.guitaretab.com/s/stevie-ray-vaughan/129679.html ]
e|----------------------------5-k---|
B|----------------------------5-k---|
G|--6h7p6-\ -2--------2-------------|
D|--7---------4--2h4---4\ -2--------|
A|----------------------------------|
E|----------------------------------|
    C#   C#
e|--4----4------------------------------7-k-------|
B|--6----6------------------------------7-k-------|
G|--6-RG-6-k--10h11--10---10h11-10----------------|
D|--6-Rg-6-k--11-----11---11-------11-------------|
A|--4----4----------------------------------------|
E|------------------------------------------------|
    D    D
e|------------10----------------------------------|
B|--7----7----------------------------------------|
G|--7-RG-7-k--11--11h12--11----------11h12--11----|
D|--7-RG-7-k--12--12--------12----12--------------|
A|--5----5----12---------------12-----------------|
E|------------------------------------------------|

e|--7------------7-----7---7---7-------|
B|--7---7-7-7----7-----7---7---7-------|
G|--8---8-8-8----8h9---8h9-8h9-8-------|
D|--9---9-9-9--------------------------|
A|-------------------------------------|
E|-------------------------------------|
    A   A#  B  C#     D            (1:23)
e|--5---6---7---9-----------------------|
B|--5---6---7---9-----7---------9\ -----|
G|--6---7---8---10----7---------9\ -----|
D|--7---8---9---11----7------9--9\ -----|
A|--7---8---9---11----5--/7-------------|
E|--5---6---7---9-----------------------|
    A		             ~~~~~
e|--5---5----------------------------------|
B|--5---5----------------------------------|
G|--6---6--6h7--6--6h7--6------------6-----|
D|--7------7----7--7----7--7---------7-----|
A|--7--------------------------------------|
E|--5--------------------------------------|
Note: Jimi Hendrix fingering. (hold E string with thumb over the top of the neck)





	        
e|--17\ -----------------------------------------------|
B|-------7--5------------------------------------------|
G|-------------4b--2--------4h2-----2h4--2-------2-----|
D|--------------------2--4------4-----------4--2-------|
A|-----------------------------------------------------|
E|-----------------------------------------------------|

e|----------------------------------------|
B|------------------12--------------------|
G|--11--12--11-------------11--12---------|
D|--12--12--12-------------12--12---------|
A|--------------11------12---------12-----|
E|----------------------------------------|
			     (1:57)
e|--9--10--11--12--11--10---7-------|
B|--7--8---9---10--9---8----7-------|
G|--9--10--11--12--11--10---8-------|
D|----------------------------------|
A|----------------------------------|
E|--------------------------7-------|
	G7     G7	   G      E11 (strum) 
e|------3------3-----------3----------------------------|
B|------3------3-----------3-------9--------------------|
G|------4------4-----------4-------7-----------17\ ------|
D|------3------3-----------3-------6-----------17\ ------|
A|------5------5---2h3-------------7--------------------|
E|--3---3---3--3--------3------o------------------------|

    A			      ~~~~~
e|--5---5----------------------------------|
B|--5---5----------------------------------|
G|--6---6--6h7--6--6h7--6------------6-----|
D|--7------7----7--7----7--7---------7-----|
A|--7--------------------------------------|
E|--5--------------------------------------|
Note: Jimi Hendrix fingering. (hold E string with thumb over the top of the neck)

(8:00 solo) (sorry not done yet.  Coming Soon!!)

Enjoy!!!
Related for Life Without You tab