Song name
# A B C D E F G H I J K L M N O P Q R S T U V W X Y Z

Stevie Ray Vaughan - Say What tab

Song: Say What!
Band: Steve Ray Vaughan and Double Trouble
Album: ???
I tabbed this all by ear and it took me about three days. It's not perfect but i'd say
90-95% correct. Also, I wanted to point out that I don't think its from the soul to soul
because i looked for it on yahoo to hear a sample, and SRV uses a wah pedal. On this
he doesn't. It still sounds cool though with a wah but i think he uses only a little
I have no idea what version this is or on what album its from but its the best that i've
out of all of them. I found it on Ares or something like that. It's not the one from
SNL, Daytona Beach, or Soul to Soul. If anyone knows where it's from please let me know. 
to tune down half a step. Also if you can't find this version, let me
and i'll attach it to an e-mail and mail it to you. This is SRV at his best.

                           Say What!
                           Tabbed by Jose Villarreal
|-15-14-13-12-11\-|
|-15-14-13-12-11\-|
|-15-14-13-12-11\-|
|-14-13-12-11-10\-|
|-----------------|
|-----------------|

|-6---------6--------------------8---8--------------------------------------|
|-7------x--7------------------8---11--8----8-------------------------------|
|---8~~~-x----8~-----------10b-----------10---10brp8----10----8~------------|
|----------------10p8--------------------------------10----10----10p8-------|
|---------------------10\---------------------------------------------10\---|
|---------------------------------------------------------------------------|

|-----------------11~-8h11p8----8---------------------8-----------|
|-8-10br-8--------11~--------11---11-8-8h11p8----8-11---11b-11b~--|
|-8-10br-8----10b-----------------------------10------------------|
|----------10-----------------------------------------------------|
|-----------------------------------------------------------------|
|-----------------------------------------------------------------|

|------8----8----8----8-11-8h10p8----8---------------------8------8---------|
|-11b~---11---11---11-------------11---11-8-8h11p8----8-11---11b~---11-8-11-|
|--------------------------------------------------10-----------------------|
|---------------------------------------------------------------------------|
|---------------------------------------------------------------------------|
|---------------------------------------------------------------------------|

|-------------------------8-11b~-11~-8-11----8~-8~-8~-8~----11-13b----|
|-11--------------------8-----------------11-------------13-----------|
|-10br-8~---------8-10b-----------------------------------------------|
|------------8-10-----------------------------------------------------|
|---------10----------------------------------------------------------|
|---------------------------------------------------------------------|

|-11h13p11----11---------------------------8-----8-----8--------------------|
|----------13----13p11----13\11-8----8-11b---11b---11b---11b~-11b~-11b-11~--|
|----------------------12---------10----------------------------------------|
|---------------------------------------------------------------------------|
|---------------------------------------------------------------------------|
|---------------------------------------------------------------------------|

|-------------------8h11p8----8h11p8----8------------------------------------|
|-11br-11br-11b~-11--------11--------11---11p8----------8h11p8----8h11p8----8|
|----------------------------------------------10b--10---------10--------10--|
|----------------------------------------------------------------------------|
|----------------------------------------------------------------------------|
|----------------------------------------------------------------------------|

|------------------------------------------------------------|
|-----------------8-8h11p8----8h11p8----8h11p8---------------|
|-10p8----8h10-10----------10--------10--------10p8----8h10--|
|------10-------------------------------------------10-------|
|------------------------------------------------------------|
|------------------------------------------------------------|

|----------8-11b~-11b-11-8h10p8----8------------------|
|--------8----------------------11---11b~-11b-11b-11b-|
|--8-10b----------------------------------------------|
|-----------------------------------------------------|
|-----------------------------------------------------|
|-----------------------------------------------------|

|-------------------------------------------18-18-----18-18------------------|
|-----16-18-16h18p16--------16-18----16-18b-------18b-------18brp16----18-16-|
|-/17----------------17--17-------17--------------------------------17-------|
|----------------------------------------------------------------------------|
|----------------------------------------------------------------------------|
|----------------------------------------------------------------------------|

|----15-18-20-18-20~-18brp15----18-15-18-15h18p15----15--------------------|
|-18-------------------------18-------------------18----18-16----18----16\-|
|-------------------------------------------------------------17----17-----|
|--------------------------------------------------------------------------|
|--------------------------------------------------------------------------|
|--------------------------------------------------------------------------|

|--------------------8-11b-13b~-11---------------------------------------|
|------------------8---11b-13b~-11----8~---------8-8---------------------|
|----8-10----8-10b-----------------10-8~---------8-8------------8----8~--|
|-10------10--------------------------------8-10------------------10-----|
|----------------------------------------10--------------8-9-10----------|
|----------------------------------------------------/11-----------------|

|------------------------------------------------13b-13b~-11-8h10p8----8----8|
|------------------------11-13-13b-11~-----11-13--------------------11---11--|
|------------------8-/12---------------/12-----------------------------------|
|--------8----8-10-----------------------------------------------------------|
|-8-9-10---10----------------------------------------------------------------|
|----------------------------------------------------------------------------|

|-13b-13-11-----------------------------------------18-----18-----18------|
|-----------13~------------------16----18----16-18b----18b----18b----18b~-|
|-------------------15-17~-15-17----17----17------------------------------|
|---------------/17-------------------------------------------------------|
|-------------------------------------------------------------------------|
|-------------------------------------------------------------------------|

|------18--15-18-15----18----15--------------------15-15h18p15----15h18p15-|
|-20b~--------------18----18----18p16----16-18-18b-------------18----------|
|-------------------------------------17-----------------------------------|
|--------------------------------------------------------------------------|
|--------------------------------------------------------------------------|
|--------------------------------------------------------------------------|

|----15h18p15----15h18p15----15------18-15----15----------------------------|
|-18----------18----------18----20b~-------18----18-16----------------16-18-|
|------------------------------------------------------17-15----15-17-------|
|------------------------------------------------------------17-------------|
|---------------------------------------------------------------------------|
|---------------------------------------------------------------------------|

|---15-18-20-18-20~-21b~-----------------------8-13b-13b-11-----------------|
|-20-----------------------------------------8--------------13--------------|
|------------------------\10p8----10----8-10-------------------12\10-8----10|
|------------------------------10----10--------------------------------10---|
|---------------------------------------------------------------------------|
|---------------------------------------------------------------------------|

|-----------8---------------8-11-13b-13b~-13brp11----13----11-13------------|
|---------8---11b~-x15-11br-----------------------13----13-------13~-13~-13~|
|----8-10-------------------------------------------------------------------|
|-10------------------------------------------------------------------------|
|---------------------------------------------------------------------------|
|---------------------------------------------------------------------------|

|-11b~-------------------------------------18-----18-----18------18-----|
|-----16h18p16----16----16-17-18----16-18b----18b----18b----18b~----18b-|
|--------------17----17----------17-------------------------------------|
|-----------------------------------------------------------------------|
|-----------------------------------------------------------------------|
|-----------------------------------------------------------------------|

|----------|
|-16h18p16-|
|----------|
|----------|
|----------|
|----------|

|-------------------18b~----15-15h18-15h18p15----15h18p15----15h18p15--|
|----18-------16-18~-----18-------------------18----------18-----------|
|-17-------17----------------------------------------------------------|
|-------17-------------------------------------------------------------|
|----------------------------------------------------------------------|
|----------------------------------------------------------------------|

|----15h18p15------------------------------------------------------------15-|
|-18----------18-18p16-------------16-18-16h18p16--------16-18----16-18b----|
|----------------------17-17\15-17----------------17--17-------17-----------|
|---------------------------------------------------------------------------|
|---------------------------------------------------------------------------|
|---------------------------------------------------------------------------|

|-18-20-18-20-----18-20b~-20~-15h18p15----15---------------8h11p8----8------|
|--------------20----------------------18----18----18-------------11---11---|
|-----------------------------------------------17----17~-------------------|
|---------------------------------------------------------------------------|
|---------------------------------------------------------------------------|
|---------------------------------------------------------------------------|
                           Organ Solo
|--------------------------------------8-8-8-10-8-8----------------8---------|
|--8-8h11p8----8------------10-8-------8-8-8-10-8-8-x2--8---10-----8---------|
|-----------10---10-10p8----10-8-------7-8-7-10-8-7-----8h9-10-8h9-7-x3------|
|------------------------10------10\---8-7-8-9--7-8----------------8---------|
|----------------------------------------------------------------------------|
|----------------------------------------------------------------------------|

|------------8----------------8---------------10-----------8-------------8-|
|-8---10-----8-----8---10-----8----8---10-----10--10-12-10-8--8---10-----8-|
|-8h9-10-8h9-8-x2--8h9-10-8h9-7-x2-8h9-10-8h9-10--10-12-10-7--8h9-10-8h9-7-|
|------------7----------------8---------------9------------8-------------8-|
|--------------------------------------------------------------------------|
|--------------------------------------------------------------------------|

|---------------8-13b--13-11------------------11-13b-11~-11----8---------|
|-8---10-----10-8------------13~-13~-13~-13~----------------11---11----8-|
|-8h9-10-8h9-10-----------------------------------------------------10---|
|------------------------------------------------------------------------|
|------------------------------------------------------------------------|
|------------------------------------------------------------------------|

|------------------8-----8------------------------------------------------|
|-------------8-11---11b---11b-11b--11b-11b--11b-11b--11b-11brp8-11b-11b~-|
|-/10----8-10-------------------------------------------------------------|
|-----10------------------------------------------------------------------|
|-------------------------------------------------------------------------|
|-------------------------------------------------------------------------|

|------------------------8-----8-----8-----8-11-8---------8~-----------------|
|-11b~--11-11~-11b-8~-11---11b---11b---11b--------11-8-11--------------------|
|---------------------------------------------------------------------------8|
|---------------------------------------------------------------8----8-9-10--|
|-----------------------------------------------------------/10---10---------|
|----------------------------------------------------------------------------|

|-------------8------8-11-8h10p8----------------------18--------------|
|-8---8---8-----8-11------------------16-18----16-18b----18b~-18b-18b-|
|-10b-10b-10b---------------------/17-------17------------------------|
|---------------------------------------------------------------------|
|---------------------------------------------------------------------|
|---------------------------------------------------------------------|

|-------------18-18b~-18br~--18br~---------18b~--18b-18~-15h18p15----15------|
|-18b-18b--18b---18b~-18br~--18br~x9-16---------------------------18----18-16|
|---------------------------------------17-----------------------------------|
|----------------------------------------------------------------------------|
|----------------------------------------------------------------------------|
|----------------------------------------------------------------------------|
                                                            3:54
|-------------------------8-11b-11b-8-8h10p8----8---------------------8-|
|-----18----16~-\-------8--------------------11---11-8-8h11p8----8-11---|
|--17----17-----\-8-10b---------------------------------------10--------|
|-----------------------------------------------------------------------|
|-----------------------------------------------------------------------|
|-----------------------------------------------------------------------|

|----8-----8------------8--------------------------------------8-----------|
|-11---11b---8--11-8-11---8----8---------------------------------8-11b-11b-|
|---------------------------10---10-8----8--------------8-10b--------------|
|-------------------------------------10---10-8----8-10--------------------|
|-----------------------------------------------10-------------------------|
|--------------------------------------------------------------------------|

|-----11b~-11br/12~-12br/13~-13br14~-14br/15b~-15b~-15-18-15-18-15-18-15-18-|
|-11b-11b~-11br/12~-12br/13~-13br14~-14br/15b~-15b~-------------------------|
|---------------------------------------------------------------------------|
|---------------------------------------------------------------------------|
|---------------------------------------------------------------------------|
|---------------------------------------------------------------------------|

|----18~-----18~-----18~-----18~-----------------------18--------------|
|-16~----16~-----16~-----16~--------18-----16-18-16-18----16\----------|
|--------------------------------17----17---------------------/10-8~---|
|----------------------------------------------------------------------|
|----------------------------------------------------------------------|
|----------------------------------------------------------------------|

|-------8-11b-11b--13-13b-13-11----8-----------------8-11b-8----|
|-----8-------------------------11---11-8----------8---------8\-|
|-10b----------------------------------------8-10b--------------|
|-----------------------------------------10--------------------|
|---------------------------------------------------------------|
|---------------------------------------------------------------|

|----8-11-8h10p8----8-----------------------------------------8-11-8h10p8-|
|-11-------------11---11-8----8---------------------10-8~-/11-------------|
|--------------------------10---10-8----8-10brp8----10-8~-----------------|
|------------------------------------10----------10-----------------------|
|-------------------------------------------------------------------------|
|-------------------------------------------------------------------------|

|----8--------------8--------------|
|-11---11-8----8-11---11b~-11b-----|
|-----------10-----------------8\--|
|----------------------------------|
|----------------------------------|
|----------------------------------|

Suggestions please post them and i'll be sure to read them.
Tap to rate this tab
 
# A B C D E F G H I J K L M N O P Q R S T U V W X Y Z