Song name
# A B C D E F G H I J K L M N O P Q R S T U V W X Y Z

Stevie Ray Vaughan - In Step tab

Stevie Ray Vaughan - In Step (intro, and end sort of)

Great fingering exercise!  Don't ask me to tab the lead in the middle.  I'm not *that* good.  



     H.           E.  S    S. S   S.S  S  S S  S S  S T  T  S S  S S  
D#||---------------------|--------------------------------------------|
A#||---------------------|--------------------------------------------|
F#||---------------------|--------------------------------------------|
C#||---------------------|-----------------------------5p-2p-0--------|
G#||---------------------|-----------2h-4p-2-5p-2-4p-2---------2h-4---|
D#||-------------------0-|--L----2/4--------------------------------0-|
Fingering-->                    R   I  R  I P  I R  I P  I    I  R    


  S. S   S.S  S  S S  S S  S T  T  S S  S S    S. S   S.S  S  S S  S S  S T  T  S S  S S  
--------------------------------------------|--------------------------------------------|
--------------------------------------------|--------------------------------------------|
--------------------------------------------|-----------------------------5p-2p-0--------|
-----------------------------5p-2p-0--------|-----------2h-4p-2-5p-2-4p-2---------2h-4---|
-----------2h-4p-2-5p-2-4p-2---------2h-4-0-|--L----2/4----------------------------------|
--L----2/4----------------------------------|------------------------------------------0-|
       R   I  R  I P  I R  I P  I    I  R           R   I  R  I P  I R  I P  I    I  R    


  S. S   S.S  S  S S  S S  S T  T  S S  S S    S. S   S.S  S  S S  S S  S T  T S  S  S S  
--------------------------------------------|--------------------------------------------|
--------------------------------------------|--------------------------------------------|
--------------------------------------------|-----------------------------7p-4-----------|
-----------------------------5p-2p-0--------|-----------4h-6p-4-7p-4-6p-4------7p-4h-6---|
-----------2h-4p-2-5p-2-4p-2---------2h-4-2-|--L----4/6----------------------------------|
--L----2/4----------------------------------|------------------------------------------0-|
       R   I  R  I P  I R  I P  I    I  R I         R   I  R  I P  I R  I P  I P  I  R    


  S. S   S.S  S  S E  Q.     S    S. S.   E  Q      E  E  E  S  
-------------------------------|-------------------------------|
-------------------------------|-------------------------------|
-------------------------------|-------------------------------|
-------------------2-----------|-------------------------------|
-----------2h-4p-2-------------|-------------2---------2--4----|
--L----2/4-------------------0-|--L-----2/4-------2/4--------0-|
       R   I  R  I I                    R    I    R    I  R     



  S. S   S.S  S  S S  S S  S T  T  S S  S S    S. S   S.S  S  S S  S S  S T  T  S S  S S  
--------------------------------------------|--------------------------------------------|
--------------------------------------------|--------------------------------------------|
--------------------------------------------|-----------------------------5p-2p-0--------|
-----------------------------5p-2p-0--------|-----------2h-4p-2-5p-2-4p-2---------2h-4---|
-----------2h-4p-2-5p-2-4p-2---------2h-4-0-|--L----2/4----------------------------------|
--L----2/4----------------------------------|------------------------------------------0-|
       R   I  R  I P  I R  I P  I    I  R           R   I  R  I P  I R  I P  I    I  R    



  S. S   S.S  S  S S  S S  S T  T  S S  S S    S. S   S.S  S  S S  S S  S T  T S  S  S S  
--------------------------------------------|--------------------------------------------|
--------------------------------------------|--------------------------------------------|
--------------------------------------------|-----------------------------7p-4-----------|
-----------------------------5p-2p-0--------|-----------4h-6p-4-7p-4-6p-4------7p-4h-6---|
-----------2h-4p-2-5p-2-4p-2---------2h-4-2-|--L----4/6----------------------------------|
--L----2/4----------------------------------|------------------------------------------0-|
       R   I  R  I P  I R  I P  I    I  R I         R   I  R  I P  I R  I P  I P  I  R    


                       ^ ^ ^        
  S. S   S.S  S  S S S S S S Q      
-----------------------9-9-9------||
-----------------------9-9-9------||
-----------------------9-9-9------||
-------------------2--------------||
-----------2h-4p-2----------------||
--L----2/4------------------------||
       R   I  R  I I   P P P




Duration Legend
---------------
W - whole
H - half
Q - quarter
E - 8th
S - 16th
T - 32nd
X - 64th
. - note dotted
|-n-|  - n-tuplets


Tablature Legend
----------------
L - tied note
x - dead note
g - grace note
(n) - ghost note
> - accentuded note
NH - natural harmonic
AH - artificial harmonic
TH - tapped harmonic
SH - semi harmonic
PH - pitch harmonic
h - hammer on
p - pull off
b - bend
br - bendRelease
pb - preBend
pbr - preBendRelease
brb - bendReleaseBend
\n/ - tremolo bar dip
\n - tremolo bar dive
-/n - tremolo bar Release up
/n\ - tremolo bar inverted dip
/n - tremolo bar return
-\n - tremolo bar Release down
S - shift slide
s - legato slide
/ -  slide into from below or out of upwards
\ -  slide into from above or out of downwards
~ - vibrato
W - wide vibrato
tr - trill
TP - tremolo picking
T - tapping
S - slap
P - pop
< - fade in
^ - brush up
v - brush down


Fingering
-----------------
I - Index
M - Middle
R - Ring
P - Pinky
Tap to rate this tab
 
# A B C D E F G H I J K L M N O P Q R S T U V W X Y Z