Song name
# A B C D E F G H I J K L M N O P Q R S T U V W X Y Z

Stevie Ray Vaughan - Aint Gonna Give Up On Love tab

              Q    S S Q    E  Q    E  E  E  E   
F#||-------|------------------------------------|
C#||-------|------------------------------------|
G#||-------|--7----7---5-------4----------7--6--|
D#||-------|---------0------0-------0--7--------|


  Q    E  Q    E  Q    E  E  E  E     Q    E  Q    E  Q    E  Q    E   
-----------------------------------|----------------------------------|
-----------------------------------|----------------------------------|
--5----5---------------------------|----------4----4--5----5--6----6--|
----------2----2--4----4--2--3--4--|--5----5--------------------------|


  Q    S S E  S S E  Q    E  E  E  E     Q    E  Q    E  Q    E  E   S  S E   
--------------------------------------|--------------------------------------|
-----------------------------5--6--7--|--------------------------5--(6)-6-7--|
--7--------7--5-5-6--7----7-----------|----------4----4--7----7--------------|
-------0-0----------------------------|--5----5------------------------------|


  Q    E  Q    E  Q    E  E  E  E     Q    E  Q    E  Q    E  E   S  S E   
--------------------------5--6--7--|--------------------------------------|
----------4----4--7----7-----------|--------------------------5--(6)-6-7--|
--5----5---------------------------|----------4----4--7----7--------------|
-----------------------------------|--5----5------------------------------|


  Q    E  Q    E  Q    S S E  E  E     Q    E  Q    E  Q    E  E  E  E   
------------------------------------|--------------------------5--6--7--|
---------------------------7--------|----------4----4--7----7-----------|
----------4----4--7----7------------|--5----5---------------------------|
--5----5-----------------5-------5--|-----------------------------------|


  Q    E  Q    E  Q    E  E  E  E     Q    E  Q    E  Q    E  E  E  E   
--------------------------5--6--7--|--------------------------0--1--2--|
----------4----4--7----7-----------|------------------2----2-----------|
--5----5---------------------------|--0----0--4----4-------------------|
-----------------------------------|-----------------------------------|


  Q    E  Q    E  Q    E  E  E  E     Q    E  Q    E  Q    E  E  E  E   
--------------------------0--------|-----------------------------------|
------------------2----2-----4--3--|--2--------------------------------|
--0----0--4----4-------------------|----------5-------4----------7--6--|
-----------------------------------|-------0-------0-------0--7--------|


  Q    E  Q    E  Q    E  E  E  E     E.  S E  Q    E  Q    S S Q    S S  
--------------------------5--6--7--|-------------------------------------|
----------4----4--7----7-----------|-------------------------------------|
--5----5---------------------------|-----------4----4--5----L---6----L---|
-----------------------------------|--5---5-5-----------------0--------0-|


  Q    S S E  E  E  Q    E  E  S S E     Q    E  Q    E  Q    E  E  E  S S  
--------------------------------------|------------------------------------|
----------------------------5--6---7--|--------------------------5--6--7---|
--7--------7--5--6--7----7-------7----|----------4----4--7----7------------|
-------0-0----------------------------|--5----5--------------------------5-|


  Q    E  Q.     S S S S S S E  E  E     Q    E  Q    E  S  S  Q    E  E  E   
-----------------------------5--6--7--|--------------------------------------|
----------4------7-7-7-7-7------------|-----------------------------5--6--7--|
--5----5-------------------0----------|----------4----4--4-----7-------------|
--------------------------------------|--5----5------------(5)---------------|


  E  S S E  Q    S S E  E  E  E  E  E     Q    E  Q    E  E  S S E  E  E  E   
---------------------------------------|----------------------------5--6--7--|
------------------------7--------------|----------4----4--7--L-4-7-----------|
------------4----L---7-----7-----7-----|--5----5-----------------------------|
--5--L-5-5---------5----------5-----0--|-------------------------------------|


  Q    E  Q    E  E  S S E  E  E  E     Q    E  Q    E  Q    E  E  E  E   
----------------------------5--6--7--|-----------------------------------|
----------4----4--7--L-4-7-----------|--------------------------5--6--7--|
--5----5-----------------------------|----------4----4--7----7-----------|
-------------------------------------|--5----5---------------------------|


  Q    E  Q    E  Q    E  E  E  E     Q    E  Q    E  Q    E  E  E  E   
-----------------------------------|-----------------------------------|
--------------------------5--4--3--|--2--------------------------------|
----------4----4--7----7-----------|----------5-------4----------7--6--|
--5----5---------------------------|-------0-------0-------0--7--------|


  Q    E  Q    E  Q    E  E  S S E     Q    E  Q    S  S  E  E  S S Q    S S  
------------------------------------|----------------------------------------|
------------------------------------|----------------------------------------|
--5----5----------------------------|----------4----4-----5-----5---6----6---|
----------2----2--3----3--4--4-4-4--|--5----5---------(5)----5----5--------5-|


  E  E  S S E  E  E  E  S S E  E  E  E     Q    E  E.  S E  Q    S S Q    S S  
----------------------------------------|-------------------------------------|
-------------------------------5--6--7--|-------------------------------------|
--7-----7---7--5--6--7--7-7-7-----------|--5----5--7---7-7--8----8-8-9----L-9-|
-----0----0-----------------------------|-------------------------------------|


  Q    E  E  S  S  E  Q    E  Q    S S    E  E  E  Q    E  Q    E  Q    S S  
---------------------------------------|------------------------------------|
---------------------------------------|------------------------------------|
------------------------------4----L---|--5--5--5--7----7--8----8--9----L-x-|
--5----5--7--L-(5)-7--8----8---------5-|------------------------------------|


  E  E  E  E  E  E  Q    S S Q    S  S     E  E  E  Q    E  Q    E  Q.      
----------------------------------------|----------------------------------|
----------------------------------------|----------------------------------|
-----------------------------4----L-----|--5--5--5--7----7--8----8--9------|
--5--5--5--7--7--7--8----8-5--------(5)-|----------------------------------|


  E  E  E  E  E  E  Q    S S Q    S S    E  E  E  E  E  E  E  E  E  E  S S E   
--------------------------------------|---------------------------------------|
--------------------------------------|---------------------------------------|
-----------------------------4----L---|-----------4--4--4--5--5--5--6--6-6-6--|
--5--5--5--7--7--7--8----8-5--------5-|--7--7--7------------------------------|


  E  E  E  E  E  E  S S S S S S E  E  E     Q    E  Q    S S Q    S S Q    S S  
-----------------------------------------|-------------------------------------|
-----------------------------------5--6--|--7----------------------------------|
--7--------7--------7---7-7-7---7--------|----------4----L---5----5---6----L---|
-----0--0-----0--0----0-------0----------|-------5---------5--------5--------5-|


  E  S S E  E  E  E  S S S S E  E  E  E   
-----------------------------------------|
------------4--4--4--5-5-5-5-5--6--6--7--|
--7--7---7-------------------------------|
-------0---------------------------------|


  Q    E   Q    E   Q    E  S S E  E     Q    E   Q     E   Q     E   S S Q     
----------11----9--12----9------------|----------16----14--17----14--16-L-L----|
----------------------------5-7-5-----|--0----0---0-----0---0-----0---0-0-L----|
--0----0---0----0---0----0---------7--|----------------------------------------|
--------------------------------------|----------------------------------------|


  Q    E   Q     E   Q     E   E  S  S  E   
----------11--------12--------11--L-11-11--|
----------------14--------14---------------|
--0----0--12-----0--12-----0--12--L-12-12--|
-------------------------------------------|


  E  E  E   E   E   E   Q     E   E   E  E   
-----------11--11------12-------------------|
-------------------14--------14-------------|
--0--0--0--12--12---0--12-----0--12--12--0--|
--------------------------------------------|


  Q    E   Q     E   Q     E   E   E   E   
----------16----14--17----14--16--14--16--|
--0----0--12-----0--12-----0--12--12--12--|
------------------------------------------|
------------------------------------------|


  Q    E   Q     E   Q     E   Q    E     Q    E   Q     E   Q    E   Q     E   
----------16----14--17----14--16-------|----------12----12-----------12----11--|
--0----0--12-----0--12-----0--12-------|--------------------14-----------------|
---------------------------------------|--0----0--12----12---0----0--12----12--|
---------------------------------------|---------------------------------------|


  Q    E   Q     E   Q    E   Q.        Q    E  Q    S S Q    S S E  E  E   
----------11----11-----------11------|-------------------------------------|
--------------------14---------------|-------------------------------------|
--0----0--12----12---0----0--12------|--7----7--5----7-7-4----4-4----7--6--|
-------------------------------------|----------------------------7--------|


  Q    S S E  E  E  S S E  E  E  S S E     Q    E  Q    E  Q    E  E  E  S S  
------------------------4--5--6--7-L----|------------------------------------|
-----------4--5--6--7-7--------------6--|--7-----------------------------5-6-|
--5----5-5------------------------------|-------0--4----4--5----5--6--7------|
----------------------------------------|------------------------------------|


  Q    E  S S S S E  E  E  S S E  E  E     Q    E   Q    E   Q    E  S S E  E   
----------5-6---------------------------|----------11----9--12----9------------|
--7----7------7-7-5------------5--7--7--|----------------------------5-7-5-----|
---------------------7--7--7-7----------|--0----0---0----0---0----0---------7--|
----------------------------------------|--------------------------------------|


  Q    E   Q     E   Q     E   S S Q     
----------16----14--17----14--16-L-L----|
--0----0---0-----0---0-----0---0-0-L----|
----------------------------------------|
----------------------------------------|


  Q    E   Q     E   Q     E   E  S  S  E   
----------11--------12--------11--L-11-11--|
----------------14--------14---------------|
--0----0--12-----0--12-----0--12--L-12-12--|
-------------------------------------------|


  E  E  E   E   E   E   Q     E   E   E  E   
-----------11--11------12-------------------|
-------------------14--------14-------------|
--0--0--0--12--12---0--12-----0--12--12--0--|
--------------------------------------------|


  Q    E   Q     E   Q     E   E   E   E   
----------16----14--17----14--16--14--16--|
--0----0--12-----0--12-----0--12--12--12--|
------------------------------------------|
------------------------------------------|


  Q    E   Q     E   Q     E   Q    E     Q    E   Q     E   Q    E   Q     E   
----------16----14--17----14--16-------|----------12----12-----------12----11--|
--0----0--12-----0--12-----0--12-------|--------------------14-----------------|
---------------------------------------|--0----0--12----12---0----0--12----12--|
---------------------------------------|---------------------------------------|


  Q    E   Q     E   Q    E   Q.        Q    E  Q    S S Q    S S E  E  E   
----------11----11-----------11------|-------------------------------------|
--------------------14---------------|-------------------------------------|
--0----0--12----12---0----0--12------|--7----7--5----7-7-4----4-4----7--6--|
-------------------------------------|----------------------------7--------|


  Q    S S E  E  E  S S E  E  E  S S E     Q    E  Q    E  Q    E  E  E  S S  
------------------------4--5--6--7-L----|------------------------------------|
-----------4--5--6--7-7--------------6--|--7-----------------------------5-6-|
--5----5-5------------------------------|-------0--4----4--5----5--6--7------|
----------------------------------------|------------------------------------|


  Q    E  S S S S E  E  E  S S E  E  E     Q    E  Q    E  Q    E  E  E  E   
----------5-6---------------------------|-----------------------------------|
--7----7------7-7-5------------5--7-----|--------------------------5--6--7--|
---------------------7--7--7-7-------3--|----------4----4--7----7-----------|
----------------------------------------|--5----5---------------------------|


  S S E  E  Q    E  E  S S E  E  E  E     Q    E  Q    E  Q    E  E  E  E   
------------------------------5--6--7--|-----------------------------------|
------------4----4--7--L-4-7-----------|--------------------------5--6--7--|
--5-5-L--5-----------------------------|----------4----4--7----7-----------|
---------------------------------------|--5----5---------------------------|


  Q    E  Q    E  E  S S E  E  E  E     Q    E  Q    E  Q    E  E  E  E   
-------------------------------------|--------------------------5--6--7--|
----------------------------7--5-----|----------4----4--7----7-----------|
----------4----4--7--L-5-7--------7--|--5----5---------------------------|
--5----5-----------------------------|-----------------------------------|


  Q    E  Q    E  Q    E  E  E  E     Q    E  Q    E  Q    E  E  E  E   
--------------------------5--6--7--|-----------------------------------|
----------4----4--7----7-----------|--------------------------5--6--7--|
--5----5---------------------------|----------4----4--7----7-----------|
-----------------------------------|--5----5---------------------------|


  Q    S S E  Q    E  Q    E  E  E     E   E   E  E  E  E  E  E  E  E  E  E   
------------------------------------|----------------------------------------|
------------------------------------|----------------------------------------|
--------------4----4--5----5--6--7--|--7-------7--5--------4--5--6--7--5-----|
--5----L-5-5------------------------|-----(0)--------0--0-----------------7--|


  E  Q    Q.     H.              Q    E  Q    E  Q    E  Q.      
------------------------------|---------------------------------|
------------------------------|---------------------------------|
--5---------------------------|----------3----4--5----5--6------|
------------------------------|-------5-------------------------|


  Q    E  Q.     Q.     Q.                       
-------------------------------|-------|-------||
-------------------------------|-------|-------||
--7----------------------------|-------|-------||
----------6------5------5------|-------|-------||




Duration Legend
---------------
W - whole
H - half
Q - quarter
E - 8th
S - 16th
T - 32nd
X - 64th
. - note dotted
|-n-|  - n-tuplets


Tablature Legend
----------------
L - tied note
x - dead note
g - grace note
(n) - ghost note
> - accentuded note
NH - natural harmonic
AH - artificial harmonic
TH - tapped harmonic
SH - semi harmonic
PH - pitch harmonic
h - hammer on
p - pull off
b - bend
br - bendRelease
pb - preBend
pbr - preBendRelease
brb - bendReleaseBend
\n/ - tremolo bar dip
\n - tremolo bar dive
-/n - tremolo bar Release up
/n\ - tremolo bar inverted dip
/n - tremolo bar return
-\n - tremolo bar Release down
S - shift slide
s - legato slide
/ -  slide into from below or out of upwards
\ -  slide into from above or out of downwards
~ - vibrato
W - wide vibrato
tr - trill
TP - tremolo picking
T - tapping
S - slap
P - pop
< - fade in
^ - brush up
v - brush down
Tap to rate this tab
 
# A B C D E F G H I J K L M N O P Q R S T U V W X Y Z