Song name
# A B C D E F G H I J K L M N O P Q R S T U V W X Y Z

Stevie Ray Vaughan - Love Struck Baby tab

-------------------------------------------------------------

      STEVIE RAY VAUGHAN - LOVE STRUCK BABY. From TEXAS FLOOD 
                           album. Released 1983.

-------------------------------------------------------------

      Tabbed by:PJVillanueva







Well I'm love struck, baby, I must confess
Life without you darlin' is a solid mess
Thinkin' 'bout you, baby, give me such a thrill
I gotta have you, baby, can't get my fill
I love you baby an' I know just what to do

I still remember, and let it be said,
The way you make me feel it take a fool to forget
I swore a ton of bricks had hit me in this head
And what you do, little baby, I ain't over yet

Every time I see you make me feel so fine
Heart beatin' crazy, my blood runnin' wild
Your lovin' makes me feel like a mighty mighty man
Love me, baby, ain't I your man

I'm a love struck, baby
Yeah I'm a love struck, baby
You got me love struck, baby
And I know just what to do

Sparks start flyin' every time we meet
Let me tell you, baby, you knock me off my feet
Your kisses trip me up and they're just doggone sweet
Don't you know, baby, you can't be beat

I'm a love struck, baby
Yeah I'm a love struck, baby
You got me love struck, baby
And I know just what to do







       Tune your guitar a half step down If you 
       want to match the recording.




                                     
  
e|------- ------- ------- -------|------- ------- ----12- 12--12-|
B|-------------------------------|--------------------12--12--12-|
G|-------------------------------|-------------------------------|
D|-------------------------------|-------------------------------|
A|-------------------------------|-------------------------------|
E|-------------------------------|-------------------------------|




                   slight upwards 
                   bend
e|12--12- 12--12- 15B---- -------|10--10- 10--10- 13B---- ----5--|
B|12--12--12--12--14B------------|10--10--10--10--12B---------5--|
G|-------------------------------|-------------------------------|
D|-------------------------------|-------------------------------|
A|-------------------------------|-------------------------------|
E|-------------------------------|-------------------------------|





e|----8-- ----8-- 8---8-- 8---8B-|5------ ------- ------- -------|
B|----7-------7---7---7---7---7B-|5---5-------5---------------5--|
G|-------------------------------|----7-------7---------------7--|
D|-------------------------------|----6-------6---------------6--|
A|-------------------------------|----7-------7---------------7--|
E|-------------------------------|-------------------------------|
                                                      Well I'm a




  A5      A6      A7      A6 
e|------- ------- ------- -------|------- ------- ------- -------|
B|-------------------------------|-------------------------------|
G|-------------------------------|-------------------------------|
D|----------------5--------------|5---------------5---5-------5--|
A|7---7---9-------7-------9------|7-------9-------7---7---9---7--|
E|5---5---5-------5-------5------|5-------5-------5---5---5---5--|
  love    struck, baby,   I       must    confess             Life





e|------- ------- ------- -------|------- ------- ------- -------|
B|-------------------------------|-------------------------------|
G|-------------------------------|-------------------------------|
D|----------------5---5----------|5---------------5--------------|
A|--------9-------7---7---9---7--|7-------9-------7-----------7-/|
E|--------5-------5---5---5---5--|5-------5-------5-----------5-/|
      without you darlin' is  a   solid       mess            Thinkin'




  D5      D6  D5  D7      D6
e|------- ------- ------- -------|------- ------- ------- -------|
B|-------------------------------|-------------------------------|
G|-------------------------------|-------------------------------|
D|----------------10-------------|10--10----------10--10---------|
A|12--12--14--12--12------14-----|12--12--14------12--12--14--12-|
E|10--10--10--10--10------10-----|10--10--10------10--10--10--10-|
        'bout you baby    give me such a      thrill   I  gotta





e|------- ------- ------- -------|------- ------- ------- -------|
B|-------------------------------|-------------------------------|
G|-------------------------------|-------------------------------|
D|----------------5---5----------|5---5-----------5---5-------5--|
A|----7---9---7---7---7---9---7--|7---7---9-------7---7---9---7--|
E|----5---5---5---5---5---5---5--|5---5---5-------5---5---5---5--|
  have    you,    baby,       can't   get my  fill            I



      E7
e|------- ------- ------- -------|------- ------- ------- -------|
B|----5-----------5---5---5---5--|----5-----------5---5---5---5--|
G|----7-----------7---7---7---7--|----7-----------7---7---7---7--|
D|----6-----------6---6---6---6--|----6-----------6---6---6---6--|
A|----7-----------7---7---7---7--|----7-----------7---7---7---7--|
E|-------------------------------|-------------------------------|
          love    baby,   an' I   know    just    what    to  do
              you,



e|------- ------- ------- -------|------- ------- ------- -------|
B|-------------------------------|----5-------5-------5----------|
G|-------------------------------|----7-------7-------7----------|
D|----------------5---5----------|5---6-------6-------6----------|
A|7---7---9---7---7---7---9---7--|7---7-------7-------7----------|
E|5---5---5---5---5---5---5---5--|5------------------------------|
                                                              I


  00:23

e|------- ------- ------- -------|------- ------- ------- ----0--|
B|-------------------------------|----------------------------0--|
G|-------------------------------|----------------------------0--|
D|----------------10--10---------|10--------------10--10---------|
A|12--12--14--12--12--12--14--12-|12------14--12--12--12--14-----|
E|10--10--10--10--10--10--10--10-|10------10--10--10--10--10-----|
          still remember,     and let it  be  said,           the




e|------- ------- ------- -------|------- ------- ------- -------|
B|-------------------------------|-------------------------------|
G|-------------------------------|-------------------------------|
D|----------------5---5----------|5---------------5---5----------|
A|----7---9---7---7---7---9---7--|7-------9-------7---7---9---7-/|
E|----5---5---5---5---5---5---5--|5-------5-------5---5---5---5-/|
  way you make me feel it take a  fool to forget              I




e|------- ------- ------- -------|------- ------- ------- -------|
B|-------------------------------|----------------------------5--|
G|-------------------------------|----------------------------7--|
D|----------------10--10---------|10--10------10------10------6--|
A|12--12--14--12--12--12--14--12-|12--12--14--12------12--14--7--|
E|10--10--10--10--10--10--10--10-|10--10--10--10------10--10-----|
  swore a ton of  bricks  hit me  in      this head   And what you    
                      had



e|------- ------- ------- -------|------- ------- ------- -------|
B|----5-----------5---5---5---5--|----5-------5---5---5---5---5--|
G|----7-----------7---7---7---7--|----7-------7---7---7---7---7--|
D|----6-----------6---6---6---6--|----6-------6---6---6---6---6--|
A|----7-----------7---7---7---7--|----7-------7---7---7---7---7--|
E|-------------------------------|-------------------------------|
  do,     little  baby,   I ain't             yet                      
                              over



e|------- ------- ------- -------|------- ------- ------- ----0--|
B|-------------------------------|----------------------------0--|
G|-------------------------------|----------------------------0--|
D|----------------10-------------|10--10----------10--10---------|
A|12--12--14--12--12------14--12-|12--12--14--12--12--12--14-----|
E|10--10--10--10--10------10--10-|10--10--10--10--10--10--10-----|
  Every   time I  see you make me feel so     fine            




e|------- ------- ------- -------|------- ------- ------- -------|
B|-------------------------------|-------------------------------|
G|-------------------------------|-------------------------------|
D|----------------5---5----------|5---5-----------5---5----------|
A|7---7---9---7---7---7---9---7--|7---7---9---7---7---7---9---7-/|
E|5---5---5---5---5---5---5---5--|5---5---5---5---5---5---5---5-/|
  Heart   beatin' crazy,  my  blood       runnin' wild




e|------- ------- ------- -------|------- ------- ------- ----0--|
B|-------------------------------|----------------------------0--|
G|-------------------------------|----------------------------0--|
D|----------------10-------------|10--10----------10--10---------|
A|12--12--14--12--12------14--12-|12--12--14--12--12--12--14-----|
E|10--10--10--10--10------10--10-|10--10--10--10--10--10--10-----|        
  Lovin'  makes   feel    like a  mighty  mighty  man         Love
               me     



e|------- ------- ------- -------|------- ------- ------- -------|
B|----5-----------5---5---5---5--|----5-------5---5---5---5---5--|
G|----7-----------7---7---7---7--|----7-------7---7---7---7---7--|
D|----6-----------6---6---6---6--|----6-------6---6---6---6---6--|
A|----7-----------7---7---7---7--|----7-------7---7---7---7---7--|
E|0------------------------------|0------------------------------|   
          me,     baby,   ain't I         your man    I'm     a    


  00:46

e|------- ------- ------- -------|------- ------- ------- -------|
B|-------------------------------|-------------------------------|
G|-------------------------------|-------------------------------|
D|----------------5---5----------|5---5-----------5---5----------|
A|7---7---9---7---7---7---9---7--|7---7---9---7---7---7---9---7-/|
E|5---5---5---5---5---5---5---5--|5---5---5---5---5---5---5---5-/|
  love    struck, baby                                    I'm a
                                                      Yeah,



e|------- ------- ------- -------|------- ------- ------- ----0--|
B|-------------------------------|----------------------------0--|
G|-------------------------------|----------------------------0--|
D|----------------10-------------|10--10----------10-------------|
A|12--12--14--12--12------14--12-|12--12--14--12--12--12---------|
E|10--10--10--10--10------10--10-|10--10--10--10--10--10---------|
  love    struck, baby                                You got me
               



e|------- ------- ------- -------|------- ------- ------- -------|
B|-------------------------------|-------------------------------|
G|-------------------------------|-------------------------------|
D|----------------5---5----------|5---------------5---5----------|
A|7---7---9---7---7---7---9---7--|7---7---9---7---7---7---9---7--|
E|5---5---5---5---5---5---5---5--|5---5---5---5---5---5---5---5--|
  love struck, baby                                   And     I 




e|------- ------- ------- -------|------- ------- ------- -------|
B|----5-----------5---5---5---5--|----5-------5---5---5---5---5--|
G|----7-----------7---7---7---7--|----7-------7---7---7---7---7--|
D|----6-----------6---6---6---6--|----6-------6---6---6---6---6--|
A|----7-----------7---7---7---7--|----7-------7---7---7---7---7--|
E|-------------------------------|-------------------------------|
  know    just    what    to  do


  00:57

e|5---5-- 5---5-- 5---5-- 5------|8B----- ----8B- ------- ----8B-|
B|5---5---5---5---5---5---5------|7B----------7B--------------7B-|
G|-------------------------------|-------------------------------|
D|-------------------------------|-------------------------------|
A|-------------------------------|-------------------------------|
E|-------------------------------|-------------------------------|





e|------- 8------ 8---8B- 8---8B-|5---5-- ----5-- 5------ 5---5--|
B|--------7-------7---7B--7---7B-|5---5-------5---5-------5---5--|
G|-------------------------------|--------7B9---------7B9--------|
D|-------------------------------|-------------------------------|
A|-------------------------------|-------------------------------|
E|-------------------------------|-------------------------------|





e|8---5-- ----5-- 5---5-- -------|----5-- ----5-- 5---5-- ----5--|
B|-------8B10-5---5---5---7---5--|----5-------5---5---5-------5--|
G|----------------7B9-----7---5--|----7B9-----9---9---9---7---5-H|
D|-------------------------------|-------------------------------|
A|-------------------------------|-------------------------------|
E|-------------------------------|-------------------------------|





e|5------ ----5-- 5---5-- 5---5--|----5-- 5---5-- ------- 5---5--|
B|5-------7---5---5---5---5---5--|----5---5---5-----------5---5--|
G|6---6---7---5-H-6---6---5---7-B|9---9---7---6-------7B9--------|
D|----7---------------7----------|-------------------------------|
A|-------------------------------|-------------------------------|
E|-------------------------------|-------------------------------|





e|8---7-- 5------ ----5-- ----5--|----5-- 5------ 5---5-- ----5--|
B|8---7---5---8-\-7---5-------5--|----5---5-------5---5---7---5--|
G|------------8-\-7---5-------5--|7B9---------7B9---------7---5--|
D|------------------------7------|-------------------------------|
A|-------------------------------|-------------------------------|
E|-------------------------------|-------------------------------|





e|5------ 5---5-- ----5-- 7---5--|----5-- ------- ----8B- -------|
B|5-------7---5-------5---7---5--|----5-------5-------7B---------|
G|6-------7---5-H-6---6---7---5-H|6-----------7------------------|
D|----7--------------------------|------------6------------------|
A|-------------------------------|------------7------------------|
E|-------------------------------|-------------------------------|



  01:14

e|8-~---- ----8-B ------- ----8-B|------- 8------ 8---8B- -------|
B|7-~---------7-B-------------7-B|--------7-------7---7B---------|
G|-------------------------------|-------------------------------|
D|-------------------------------|-------------------------------|
A|-------------------------------|-------------------------------|
E|-------------------------------|-------------------------------|




                              A9          Ab9 A9  Bb9 B9  C9  Db9
e|8B----- ----8B- ------- ----12-|----12- 11--12- 13--14- 15--16-|
B|7B----------7B--------------12-|----12--11--12--13--14--15--16-|
G|----------------------------12-|----12--11--12--13--14--15--16-|
D|----------------------------11-|----11--10--11--12--13--14--15-|
A|-------------------------------|-------------------------------|
E|-------------------------------|-------------------------------|




  D9              Db9 D9                                      A    
e|17----- 17----- 16--17- ----17-|------- 17----- 17--17- ----17-|
B|17------17------16--17------17-|--------17------17--17------14-|
G|17------17------16--17------17-|--------17------17--17------14-|
D|16------16------15--16------16-|--------16------16--16---------|
A|-------------------------------|-------------------------------|
E|-------------------------------|-------------------------------|





e|------- 17--17- 17--17- ----17\|----5-- 5---5-- ----5-- 5---5--|
B|--------14--14--14--14------14\|----5---5---5-------5---5---5--|
G|--------14--14--14--14------14\|----------------7B9------------|
D|-------------------------------|-------------------------------|
A|-------------------------------|-------------------------------|
E|-------------------------------|-------------------------------|





e|8---7-- 5------ ----5-- ----5--|----5-- ----5-- 5---5-- ----5--|
B|8---7---5---8---7---5-------5--|----5-------5---5---5---7---5--|
G|------------8---7---5-------5--|----7B9-----9---7B9-9---7---5-H|
D|------------------------7------|-------------------------------|
A|-------------------------------|-------------------------------|
E|-------------------------------|-------------------------------|




                                                              A7sus2
e|5------ 5---5-- 5---5-- 7---5--|----5-- ------- ------- ----17-|
B|5-------7---5---5---5---7---5--|----5-------5---------------17-|
G|6---6---7---5-H-6---6---7---5-H|6---6-------7---------------16-|
D|----7---------------7----------|------------6---------------17-|
A|-------------------------------|------------7------------------|
E|-------------------------------|-------------------------------|



  01:30

e|------- 17----- 17--17- -------|17----- ----17- ------- 17--17-|
B|--------17------17--17---------|17----------17----------17--17-|
G|--------16------16--16---------|16----------16----------16--16-|
D|--------17------17--17---------|17----------17----------17--17-|
A|-------------------------------|-------------------------------|
E|-------------------------------|-------------------------------|




                                                              D9
e|------- 17----- 17--17- -------|17----- ----17- ------- 17--17-|
B|--------17------17--17---------|17----------17----------17--17-|
G|--------16------16--16---------|16----------16----------16--17-|
D|--------17------17--17---------|17----------17----------17--16-|
A|-------------------------------|-------------------------------|
E|-------------------------------|-------------------------------|




                  Db9 D9            
e|------- 17--17- 16--17- -------|17--16- 17----- 16--17- 16--17-|
B|--------17--17--16--17---------|17--16--17------16--17--16--17-|
G|--------17--17--16--17---------|17--16--17------16--17--16--17-|
D|--------16--16--15--16---------|16--15--16------15--16--15--16-|
A|-------------------------------|-------------------------------|
E|-------------------------------|-------------------------------|




          A7sus2
e|------- 17----- 17--17- ----17\|----5-- ----5-- ----5-- 5---5--|
B|--------17------17--17------17\|----5-------5-------5---5---5--|
G|--------16------16--16------16\|------------7B9----------------|
D|--------17------17--17------17\|-------------------------------|
A|-------------------------------|-------------------------------|
E|-------------------------------|-------------------------------|





e|8---7-- 5------ ----5-- ----5--|----5-- 5------ 5---5-- 5---5--|
B|8---7---5---8---7---5-------5--|----5---5-------5---5---5---5--|
G|------------8---7---5-------5--|7B9---------7B9---------7---5--|
D|------------------------7------|-------------------------------|
A|-------------------------------|-------------------------------|
E|-------------------------------|-------------------------------|





e|5------ 5---5-- 5---5-- 7---5--|----5-- ------- ------- -------|
B|5-------7---5---5---5---7---5--|----5-------5-------5----------|
G|6---6---7---5---6---6---7---5-H|6---6-------7-------7----------|
D|----7---------------7----------|------------6-------6----------|
A|-------------------------------|------------7-------7----------|
E|-------------------------------|-------------------------------|   


  01:47

e|------- ------- ------- -------|------- ------- ------- ----0--|
B|-------------------------------|----------------------------0--|
G|-------------------------------|----------------------------0--|
D|----------------10-------------|10--10----------10--10---------|
A|12--12--14--12--12------14-----|12--12--14--12--12--12--14-----|
E|10--10--10--10--10------10-----|10--10--10--10--10--10--10-----|   
  Sparks  start   flyin'  every   time    we meet             Let 




e|------- ------- ------- -------|------- ------- ------- -------|
B|-------------------------------|-------------------------------|
G|-------------------------------|-------------------------------|
D|----------------5---5----------|5---5-----------5--------------|
A|7---7---9---7---7---7---9---7--|7---7---9---7---7---7---9---7-/|
E|5---5---5---5---5---5---5---5--|5---5---5---5---5---5---5---5-/|    
      me  tell    baby,   you knock   me  off my  feet        Your
              you,



e|------- ------- ------- -------|------- ------- ------- -------|
B|-------------------------------|-------------------------------|
G|-------------------------------|-------------------------------|
D|----------------10-------------|10--10----------10-------------|
A|12--12--14--12--12------14--12-|12--12--14--12--12--12--14--12-|
E|10--10--10--10--10------10--10-|10--10--10--10--10--10--10--10-|   
  kisses  trip me up and  they're doggone     sweet           Don't
                              just



e|------- ------- ------- -------|------- ------- ------- -------|
B|----5-----------5---5---5---5--|----5-------5---5---5---5---5--|
G|----7-----------7---7---7---7--|----7-------7---7---7---7---7--|
D|----6-----------6---6---6---6--|----6-------6---6---6---6---6--|
A|----7-----------7---7---7---7--|----7-------7---7---7---7---7--|
E|0------------------------------|0------------------------------|   
      you know,   baby,   you can't       be  beat    I'm     a    


  01:58

e|------- ------- ------- -------|------- ------- ------- -------|
B|-------------------------------|-------------------------------|
G|-------------------------------|-------------------------------|
D|----------------5---5----------|5---5-----------5---5----------|
A|7---7---9---7---7---7---9---7--|7---7---9---7---7---7---9---7-/|
E|5---5---5---5---5---5---5---5--|5---5---5---5---5---5---5---5-/|   
  love    struck, baby                                    I'm a
                                                      Yeah,



e|------- ------- ------- -------|------- ------- ------- ----0--|
B|-------------------------------|----------------------------0--|
G|-------------------------------|----------------------------0--|
D|----------------10-------------|10--10----------10-------------|
A|12--12--14--12--12------14--12-|12--12--14--12--12------14-----|
E|10--10--10--10--10------10--10-|10--10--10--10--10------10-----|
  love    struck,  baby                               You got me
               



e|------- ------- ------- -------|------- ------- ------- -------|
B|-------------------------------|----------------------------5--|
G|-------------------------------|----------------------------7--|
D|----------------5--------------|5---------------5-----------6--|
A|7---7---9---7---7-------9---7--|7---7---9---7---7-----------7--|
E|5---5---5---5---5-------5---5--|5---5---5---5---5--------------|
  love struck, baby                                   And     I 




e|------- ------- ------- -------|------- ------- ------- -------|
B|----5-----------5---5---5---5--|----5-------5---5---5---5---5--|
G|----7-----------7---7---7---7--|----7-------7---7---7---7---7--|
D|----6-----------6---6---6---6--|----6-------6---6---6---6---6--|
A|----7-----------7---7---7---7--|----7-------7---7---7---7---7--|
E|-------------------------------|-------------------------------|
  know    just    what    to  do




e/12--12- 12--12- 12--12- 15B----|10--10- 10--10- 10--10- 13B----|
B/12--12--12--12--12--12--14B----|10--10--10--10--10--10--12B----|
G|-------------------------------|-------------------------------|
D|-------------------------------|-------------------------------|
A|-------------------------------|-------------------------------|
E|-------------------------------|-------------------------------|



                                             (.
                                              A6/9
e|5---8-- 5------ 5------ -------|5/----- ----12- ------- -------|
B|5-------5--8B10-5--------------|5/----------12-----------------|
G|--------------------7B9-7---5--|------------11-----------------|
D|-------------------------------|------------11-----------------|
A|-------------------------------|------------0------------------|
E|-------------------------------|-------------------------------|










        B  Bend
        R  Release
        /  Slide up
        \  Slide down
        H  Hammer-on
        P  Pull-off
        ~  Vibrato
        +  Harmonic
        x  Mute note
        .  Play note like a dot in standard notation
        ^  Ties two notes together
        (. Pause



Tap to rate this tab
# A B C D E F G H I J K L M N O P Q R S T U V W X Y Z