Song name
# A B C D E F G H I J K L M N O P Q R S T U V W X Y Z

Stevie Ray Vaughan - Willy The Wimp tab

Willie The Wimp - SRV
Tabed by Testify

  A5    C5    D5        C5 D5    A5
e]-----------------:---------------------::
B]-----------------:---------------------::
G]-----------------:--------------------.::
D]-------5-----7---:-----5--7-----------.::
A]-7-----3-----5---:-----3--5-----7------::
E]-5---------------:--------------5------::

   D5     F5    G5           F5  G5   D5
e]-----------------:----------------------:
B]-----------------:----------------------:
G]-----------------:----------------------:
D]--------10----12-:---(12)--10--12-------:
A]-12-----8-----10-:---(10)--8---10---12--:
E]-10--------------:------------------10--:

                     E7
e]-------0-----0---:-0--0--0----0----0----:
B]---3-------3-----:-3--3--3----3----3----:
G]-----------------:-1--1--1----1----1----:
D]-2---------------:-2--2--2----2----2----:
A]-----------------:----------------------:
E]-----------------:----------------------:

simonh71@hotmail.com
Tap to rate this tab
# A B C D E F G H I J K L M N O P Q R S T U V W X Y Z