Guitaretab - guitar tabs
Song name
# A B C D E F G H I J K L M N O P Q R S T U V W X Y Z

Stevie Ray Vaughan - Blue Barden tab

Blue Barden

Intro:

e |---------------------------|
B |---------------------------|
G |---3-3--0---3s5--3--0------| The whole song
D |---3-3--0---3s5--3--0------| on the background
A |---------------------------|
E |---------------------------|
[ Tab from: http://www.guitaretab.com/s/stevie-ray-vaughan/74733.html ]
Begin Solo:
		  2x
e |----------------------------------|----0------------------|
B |----------------------------------|-----------------------|
G |---5b-----------------------------|--5b-------------------|
D |--------8----5--7s8s7--5--3--5----|-------8--5--7s8s7--5--|
A |----------------------------------|-----------------------|
E |----------------------------------|-----------------------|

e |---------------------|
B |---13s12--10---------|
G |---14s13--11---------|
D |---------------------|
A |---------------------|
E |---------------------|


Itís my first tab so I would make the whole solo but it was a little too difficult for 
so hereís only the intro.
Related for Blue Barden tab