Song name
# A B C D E F G H I J K L M N O P Q R S T U V W X Y Z

Stevie Ray Vaughan - May I Have A Talk With You tab

Live From Austin City Limits
Tabbed By: Jose Villarreal
Intro:
|---------------------------------------------------------|
|---------------------------------------------------------|
|--------------------------3b~----------------------------|
|-/0-0-0-0--0-0--0-----3h5-----5p3---------------3trill5--|
|-/5-5-5-5--5-5--5-3h5-------------5-4-3h4p3--------------|
|--------------------------------------------6-3----------|
 Spoken: 1,2,3,4
|-------------6-6-6b-6-------------6-8-8b-6/------6-6---6/-----6-8b--6----|
|----------------------8-6-8/--8-8------------8-8-----8~-----8---------8--|
|-------------------------------------------------------------------------|
|--------0-x8-------------------------------------------------------------|
|-5------5----------------------------------------------------------------|
|-------------------------------------------------------------------------|

|-8b-8b-8~-6---6/--8b-hold-6----6-------3----------3-----------------------|
|------------8---------------8~---8p6\3---6-3----3---6----6----------------|
|---------------------------------------------5b-------5b---5-3----5-3------|
|---------------------------------------------------------------5------5-----|
|---------------------------------------------------------------------------|
|---------------------------------------------------------------------------|

|------3-----------------------|
|----3---6-3-------------------|
|-5b---------5b-5-3------3-----|
|-------------------5~-5-------|
|--------------------------5~--|
|------------------------------|

1st Verse
|---------------3---3---3------------6/-x-3~------3---3---3-------------------|
|---5---3-3--6b~--3---6---3-------------x-3~---6b~--3---6---3-----------------|
|---5---3-3-----------------5b-5-3~-----x-3~------------------5b-5-3~--5b-5-3~|
|-----------------------------------------------------------------------------|
|-----------------------------------------------------------------------------|
|-3---3-----------------------------------------------------------------------|
    T   T

|------3-----------------------|
|----3---6-3-------------------|
|-5b---------5b-5-3-------3----|
|--------------------5~-5------|
|---------------------------5~-|
|------------------------------|

2nd Verse
|-6/-x-3~-------3----3------3------3---------------------/15-15-15-/15-15-15-|
|----x-3~-----3---6b---3-6b---3-6b---3------------5---3--/15-15-15-/15-15-15-|
|----x-3~--5b--------------------------5b-5-3~----5---3----------------------|
|----------------------------------------------------------------------------|
|----------------------------------------------------------------------------|
|-----------------------------------------------3---3------------------------|
                                                                                       T   T
|-/15-15-15----------------------------3------------------(0)~--|
|-/15-15-15--------------------------3---6-3---------------3~---|
|-----------3---5b-5-3~--5b-5-3~--5b---------5b-5-3---3~---5~---|
|-------------5-------------------------------------5------4~---|
|--------------------------------------------------------5-5~---|
|---------------------------------------------------------------|



1st Guitar Solo
|------3---------6/---------6-6-------3-------------------6-6-8b-8b-8-6-----|
|----3---6/8-8-8----6-6-8-8-----8p6\3-3--/8-6-8~-8-6-8~-8---------------8~--|
|-5b------------------------------------------------------------------------|
|---------------------------------------------------------------------------|
|---------------------------------------------------------------------------|
|---------------------------------------------------------------------------|

|-8b-8b-8~-6---6/--8b-8b-8b-8b-8b-8b-6-6-8-6----6-------3---------------|
|------------8-----8b-8b-8b-8b-8b-8b---------8~---8p6/3---3-------------|
|-----------------------------------------------------------5-5b-5-3~---|
|-----------------------------------------------------------------------|
|-----------------------------------------------------------------------|
|-----------------------------------------------------------------------|

|--------15----15-------15-------15-------15-------15-18-15h17p15----15-----|
|-----15----18----15-18----15-18----15-18----15-18----------------18----18--|
|-/16-----------------------------------------------------------------------|
|---------------------------------------------------------------------------|
|---------------------------------------------------------------------------|
|---------------------------------------------------------------------------|

|-18b-18b-15~-15~-------15---------------------------------18-19-20-20b~-x12-|
|--------------------15----18/20-20~-18-20-18-20-18-20~-20-------------------|
|----------------17b---------------------------------------------------------|
|----------------------------------------------------------------------------|
|----------------------------------------------------------------------------|
|----------------------------------------------------------------------------|

|-18-20-20b-18-18~-20-18-----18-20b-18-20-------------------------------------|
|------------------------20~--------------20-18-------------------------------|
|-----------------------------------------------\5-3----3-5-5b-5b-5b-5b-5-3---|
|-----------------------------------------------------5---------------------5~|
|-----------------------------------------------------------------------------|
|-----------------------------------------------------------------------------|

|------3----------------------------3----3------3---6-3---------------------|
|----3---6-3----------------------3---6b---3-6b---3-----3------------/3-3-3-|
|-5b---------5brp3---3-5-5b-3~-5b-------------------------5brp3---3~-/3-3-3-|
|------------------5--------------------------------------------5-----------|
|---------------------------------------------------------------------------|
|---------------------------------------------------------------------------|

|----------------------3---3---6-3--------3----------------3-----------------|
|-/3-3-3-------------3---6---3-----3----3---6------------3---6-3-------------|
|-/3-3-3----------5b-----------------5b-------5b-5-3~-5b---------5b-5-3---3~-|
|--------5-3-5----------------------------------------------------------5----|
|--------------5~------------------------------------------------------------|
|----------------------------------------------------------------------------|

|--(0)~-|
|---3~--|
|---5~--|
|---4~--|
|-5-5~--|
|-------|




3rd Verse
|-----------------------------------------3---3-----3---------------------|
|---5---3-----5--------------5----3-----3---6---3-6---3-------------------|
|---5---3-----5---3trill5----5----3--5b-----------------5b-5p3---3~-------|
|--------------------------------------------------------------5---5p3----|
|----------------------------------------------------------------------5--|
|-3---3-----3---3----------3----3-----------------------------------------|
    T   T     T   T          T    T

|---------------3------------------(0)~-|
|-------------3---6-3---------------3~--|
|-5b-5-3~--5b---------5b-5-3---3~---5~--|
|----------------------------5------4~--|
|---------------------------------5-5~--|
|---------------------------------------|
Outro Solo                                          Need Help Here
|------3------------6/--------------------------------------------|
|----3---6/8~-8-8-8--------8-8-6-6----x-----------------d---------|
|-5b-------------------7-7---------3~-x-----------------r---------|
|---------------------------------------5~-3------------o---------|
|--------------------------------------------5-4-3------h---------|
|--------------------------------------------------3----c---------|

|------3---3-----3-----3----------------3-----5-3h4p3---3---------3-|
|----3---6---3-6---3-6---3------------3---6-3---------6---6-3---3---|
|-5b-----------------------5b-5-3~-5b-------------------------5-----|
|-------------------------------------------------------------------|
|-------------------------------------------------------------------|
|-------------------------------------------------------------------|

|-/15-15-/15-15-15-/15-15-15-/15-15-15-|-/15-15-|----18~-15----18b-18-15~-|
|-/15-15-/15-15-15-/15-15-15-/15-15-15-|-/15-15-|x12--------18------------|
|-------------------------------------------------------------------------|
|-------------------------------------------------------------------------|
|-------------------------------------------------------------------------|
|-------------------------------------------------------------------------|

|-18b-18-18-15-------------------18b-18~-18b-18~-20b-20br-20br-20brp18--------|
|--------------18-15---------------------------------------------------20-20~-|
|--------------------17brp15--------------------------------------------------|
|----------------------------17-----------------------------------------------|
|-----------------------------------------------------------------------------|
|-----------------------------------------------------------------------------|

|------------------15----15-------15--------------------------3---3---6-3h5p3-|
|---------------15----18----15-18----15---------------------3---6---3---------|
|-\17-15----17b-------------------------\5-3---3-5-5b-3~-5b-------------------|
|--------17----------------------------------5--------------------------------|
|-----------------------------------------------------------------------------|
|-----------------------------------------------------------------------------|

|---3-------------------------------------------------3---------------------|
|-6---6-3--------------------6----------------------3---6-------------------|
|---------5-3---3-5-5b-3~-/7---7p5\3---3~--------5b-------5-5brp3---3-3-5-3-|
|-------------5----------------------5----5-3---------------------5---------|
|---------------------------------------------5~----------------------------|
|---------------------------------------------------------------------------|




|--------------------------11-10~---10\-|
|-5b-5b--5b-5b-5b--5b-5b-3-11-10~---10\-|
|-5b-5b--5b-5b-5b--5b-5b-3-11-10~---10\-|
|--------------------------10--9~----9\-|
|--------------------------11-10~---10\-|
|---------------------------------------|



Tap to rate this tab
 
# A B C D E F G H I J K L M N O P Q R S T U V W X Y Z