Song name
# A B C D E F G H I J K L M N O P Q R S T U V W X Y Z

Stevie Ray Vaughan - Shake For Me tab

SRV - shake for me

As we all know SRV plays most of his songs downtuned...but you can play it like this so 
dont have to down tune it....hope you guys like it cause this is my first tab....


these are the chords played...

e----------------------|
B----------------------|
G--------8----10-------|
D----8---8----10-------|
A----8---6----8--------|
E----6-----------------| listen to the song for the patern

this is played throughout the whole song

e----------------------|
B----------------------|
G----------------------|  x4
D----------------------|
A-----------6666-7-88--|
E---66-99--------------|

e----------------------|
B----------------------|
G---------6666-7-88----|   x2
D--66-99---------------|
A----------------------|
E----------------------|

e----------------------|
B----------------------|
G----------------------|  x2
D----------------------|
A-----------6666-7-88--|
E---66-99--------------|

e----------------------|
B----------------------|
G---------8888-9-1010--|   x1
D--88-11---------------|
A----------------------|
E----------------------|

e----------------------|
B----------------------|
G---------6666-7-88----|   x1
D--66-99---------------|
A----------------------|
E----------------------|

e----------------------|
B----------------------|
G----------------------|  x1
D----------------------|
A-----------6666-7-88--|
E---66-99--------------|

e-------------------|
B-------------------|
G-------9-----------|
D-------9-----------|
A-------8-----------|
E-------------------|


hope you guys enjoy it :) have fun playing
Tap to rate this tab
# A B C D E F G H I J K L M N O P Q R S T U V W X Y Z