Song name
# A B C D E F G H I J K L M N O P Q R S T U V W X Y Z

Stevie Wonder - The Christmas Song tab

India Arie & Stevie Wonder
The Christmas Song
Tuning: (EADGBE) Standard
Transcribed by Soch H.
Guitar Solo: (1:25)
|---------------------------------9-------------------------|
|-9-10-9----------------9-10-9------12-10-------------------|
|--------11-9--7-6-------------11---------------------------|
|------------------9-7--------------------------------------|
|-----------------------------------------------------------|
|-----------------------------------------------------------|

|------------------------------------------------------------|
|-9-10-9-----------------------------------------------------|
|--------11-9--7-6----------------------------9-11-11s13-----|
|------------------9-7-----7--7-7-9--7-9-9s11----------------|
|------------------------------------------------------------|
|------------------------------------------------------------|

|-----------------------------------------------------------|
|-----------------------------------------------------------|
|-13s11-9--------9-11---------------------------------------|
|---------7-9s11------11s9--7-7/----------------------------|
|-----------------------------------------------------------|
|-----------------------------------------------------------|
Tap to rate this tab
# A B C D E F G H I J K L M N O P Q R S T U V W X Y Z