Song name
# A B C D E F G H I J K L M N O P Q R S T U V W X Y Z

Stevie Wonder - Isnt She Lovely tab

Stevie Wonder
Isn't She Lovely
standard tuning

Intro
C#m7
F#13
B7
E

Verse
          C#m7   F#13
Isn't she lovely
          B7sus2     E    G#7b13
Isn't she wonderful
          C#m7   F#13
Isn't she precious
              B7sus2    E   G#7b13
Less than one minute old


Chorus
        A7
I never thought
                 G#7b13
Through love we'd be
       C#m9             F#13
Making one as lovely as she
              B7sus2 B13sus2   E
But isn't she lovely made from love


use this as a sort of walking baseline through the verse:
e|----------------------------------------------------------|
B|----------------------------------------------------------|
G|----------------------------------------------------------|
D|----------------------------------------------------------|
A|--4-(C#m7)----------1-2-(B7sus2)-----------------------3--|
E|----------3-2-(F#13)-------------1-0-(E)---5-4-(G#7b13)---|

and through the chorus:
e|-----------------------------------------------------------------|
B|-----------------------------------------------------------------|
G|-----------------------------------------------------------------|
D|-----------------------------------------------------------------|
A|------------------------3-4-(C#m9)------------1-2-(B7sus2)-------|
E|--6-5-(A7)-5-4-(G#7b13)------------3-2-(F#13)---------------(E)--|

then play the little diddy that comes right after the chorus:
e|------------------|
B|------------------|
G|-------------5-5~-|
D|----------4h6-----|
A|-----2h4/6--------|
E|--2h4-------------|

just replay the verse everytime for each verse (duh) and follow each verse with a 
 Should sound very close to the original with a little jazzy flavor thrown into the fray for fun.
Tap to rate this tab
 
# A B C D E F G H I J K L M N O P Q R S T U V W X Y Z