Song name
# A B C D E F G H I J K L M N O P Q R S T U V W X Y Z

Stevie Wonder - Contusion chords

     S S S S Q    E  E   H            S  S  S  S  Q    E   E   H        
E||-------------------------------|-------------------------------------|
B||-------------------------------|-------------------------------------|
G||------6-8-9----5--7~--L--------|--------10-12-13----9--11~--L--------|
D||--6-8--------------------------|--10-12------------------------------|
A||-------------------------------|-------------------------------------|
E||-------------------------------|-------------------------------------|


   S  S  S  S  H.            Q                                            
----------------------------------|-------|-------|-------|-------|-------|
--------10-12-14~------------L----|-------|-------|-------|-------|-------|
--11-13---------------------------|-------|-------|-------|-------|-------|
----------------------------------|-------|-------|-------|-------|-------|
----------------------------------|-------|-------|-------|-------|-------|
----------------------------------|-------|-------|-------|-------|-------|


     S  S  S  S  S  S  S  S  S  S  S  S  S  S  S  S 
|---14-11-------------------------------------------|
|---------14-11----14-11----------------------------|
|*--------------13-------13-11----13-11-------------|
|*-----------------------------13-------13-11-------|
|---------------------------------------------13-11-|
|---------------------------------------------------|


   S  S  S  S  S  S  S  S  S  S  S  Q     S 
--------------------------------------------|
-----------------------------------12~----L-|
-----------------------11----13-11----------|
-----------11----14-11----14----------------|
-----14-11----14----------------------------|
--14----------------------------------------|


   S  S  S  S  S  S  S  E   S  S   S  S  S  S  S     W                
--14-------14-12----------------------------------|-------------------|
--------14-------12-----------15p-14--------------|-------------------|
-----13-------------11-----14--------14----14-16~-|--L----------------|
-----------------------14---------------14--------|-------------------|
--------------------------------------------------|-------------------|
--------------------------------------------------|-------------------|


   |--3--|                                           
   S  S  S  S  S  S  S  S  S  S  S  S  S  S  S  S  S 
--11-12-11-------------------------14-12-11----------|
-----------14-12-11-------------------------14-12-11-|
--------------------13-11----------------------------|
--------------------------14-13-11-------------------|
-----------------------------------------------------|
-----------------------------------------------------|


   S  S  S  S  S  S  S  S  S  S  S  Q     S 
--------------------------------------------|
--------------------------------------------|
--15-13----13-------------------------------|
--------16----14----16----14----------------|
-----------------16----16----14----16~----L-|
--------------------------------16----------|


   S  S  S  S  E   S  S  S  S  S  S  S  S  S  S    W                  
------------------------------------------------|--------------------||
--11-12-13-14-11--------------------------------|--------------------||
------------------11----13----11----------------|-------------------*||
---------------------13----13----13-11-12-13-14-|--L----------------*||
------------------------------------------------|--------------------||
------------------------------------------------|--------------------||


-------------------|-------------------|-------------------|-------------------|
-------------------|-------------------|-------------------|-------------------|
-------------------|-------------------|-------------------|-------------------|
-------------------|-------------------|-------------------|-------------------|
-------------------|-------------------|-------------------|-------------------|
-------------------|-------------------|-------------------|-------------------|


   S  S  S  S  S  S  S  S  S  S S  S S  S S S 
--------------11-10-----------------------9-8-|
--------11-13-------12-10------------9-11-----|
--11-13-------------------12-10-9-11----------|
----------------------------------------------|
----------------------------------------------|
----------------------------------------------|


   S S  S S S S S S S S S S S S S S                                         
--------------------7-6-------------|-------------------|-------------------|
--10-8----------7-9-----8-6---------|-------------------|-------------------|
-------10-8-7-9-------------8-6-5-7-|-------------------|-------------------|
------------------------------------|-------------------|-------------------|
------------------------------------|-------------------|-------------------|
------------------------------------|-------------------|-------------------|
Tap to rate this tab
# A B C D E F G H I J K L M N O P Q R S T U V W X Y Z