Song name
# A B C D E F G H I J K L M N O P Q R S T U V W X Y Z

Stevie Wonder - You Are The Sunshine Of My Life chords

Highlighted       Show chord diagrams
Stevie Wonder- You are the sunshine of my life
(tabed by jimi_nose)

intro:
     Bsus2                    
           ^  v  ^  v  ^  v   
     Q     E  E  E  E  E  E   
E||--------2--2--2--2--2--2--|
B||--------2--2--2--2--2--2--|
G||--------4--4--4--4--4--4--|
D||--------4--4--4--4--4--4--|
A||--------------------------|
E||--------------------------|


                             F#aug                   
     v     v     v     v                             
  E  E  E  E  E  E  E  E     Q     E  Q    E   Q     
-----2-----2-----2-----2--|--2-----4--6----8--10----|
-----2-----2-----2-----2--|--3-----5--7----9--11----|
-----4-----4-----4-----4--|-------------------------|
-----4-----4-----4-----4--|-------------------------|
--------------------------|-------------------------|
--------------------------|-------------------------|


   E   Q     E   Q     Q       
--12--14----16--18----18-----||
--13--15----17--19----19-----||
----------------------------*||
----------------------------*||
-----------------------------||
-----------------------------||

B              E            Ebm7
You are the sunshine of my life
C#m7             F#7        B   C#m7 F#7
That's why I'll always be around,
You are the apple of my eye,
Forever you'll stay in my heart

B            E            Bmaj7   C#m7 F#7
I feel like this is the beginning,
B            E                       Eb7 Ebm
Though I've loved you for a million years,
G#            C#              G#m
And if I thought our love was ending,
    C#7                            F#7
I'd find myself drowning in my own tears

B              E            Ebm7
You are the sunshine of my life
C#m7             F#7        B   C#m7 F#7
That's why I'll always be around,
You are the apple of my eye,
Forever you'll stay in my heart

B              E                Bmaj7 C#m7 F#7
You must have known that I was lonely,
B            E            Eb7 Ebm
Because you came to my rescue,
G#          C#                  G#m
And I know that this must be heaven,
     C#7                    F#7      G7
How could so much love be inside of you?

C              F            Em7 F#
You are the sunshine of my life
Dm7             G7        C   Dm7 G7
That's why I'll always be around,
You are the apple of my eye,
Forever you'll stay in my heart

[Background] Love has joined us,
Love has joined us,
Let's think sweet love


Duration Legend
---------------
W - whole
H - half
Q - quarter
E - 8th
S - 16th
T - 32nd
X - 64th
. - note dotted
|-n-|  - n-tuplets

email: thimjokoca@hotmail.com
Tap to rate this tab
# A B C D E F G H I J K L M N O P Q R S T U V W X Y Z