Stevie Wonder - I Wish tab

Band/Artist: Stevie Wonder
Title: I Wish
Transcribed by: Jeffwilliams413
Website: www.jeffwilliamsguitarinstruction.com
Tuning: Standard

Intro

(Vocal Melody)				                       (Horn line)

   Ebm7       Ab7   Ebm7        Ab7   Ebm7     Ab7        Ebm7    Ab7
e|----------------|-----------------|------------------|----------11---------| 
B|--7--9-7--6--4--|--7--9--7--6--4--|--11--11--9---9---|--11--11--9----------| 
G|--6----------5--|--6-----------5--|--11--11--11--11--|--11--11--11---------| 
D|--8----------4--|--8-----------4--|--11--11--10--10--|--11--11--10---------| 
A|--6----------6--|--6-----------6--|------------------|---------------------| 
E|-------------4--|--------------4--|------------------|---------------------| 


Verse/Chorus

         Ebm7				                       Ab7
e|-----------------------------------4---------------------------------------| 
B|--------7--------------------------4---------------------------------------| 
G|--------6--------------------------5---------------------------------------| 
D|--------8--------------------------4---------------------------------------| 
A|--------6--------------------------6---------------------------------------| 
E|-----------------------------------4---------------------------------------| 


Bridge

    Bb7    C7      Fm7    Abm      Bb7    C7      Fm7    Bb7+
e|--------------|---------------|--------------|---------------| 
B|---6-----8----|---9------9----|---6-----8----|---9------7----| 
G|---7-----9----|---8------8----|---7-----9----|---8------7----| 
D|---6-----8----|---10-----9----|---6-----8----|---10-----6----| 
A|--------------|---------------|--------------|---------------| 
E|--------------|---------------|--------------|---------------| 


Instrumental

      Eb7
e|------------------------| 
B|-----4------------------| 
G|-----6------------------| 
D|-----5------------------| 
A|-----6------------------| 
E|------------------------| 

Verse/Chorus (Bass line)

e|----------------------------|----------------------------| 
B|----------------------------|----------------------------| 
G|----------------------------|------------3---------------| 
D|----------------------------|------4--6-----6------------| 
A|---6--------------3--4--5---|---6--------------3--4--5---| 
E|------2--4--6--4------------|----------------------------| 


Bridge (Bass line)

   Bb7          C7            Fm7         Abm
e|--------------------------|--------------------------| 
B|--------------------------|--------------------------| 
G|--------------------------|--------------------------| 
D|--------------------------|-----------5--6--5--6--8--| 
A|--------5--------5--6--7--|--8--7--8-----------------| 
E|--6--8-----6--8-----------|--------------------------|

    Bb7         C7            Fm7         Bb7+
e|--------------------------|-------------------------| 
B|--------------------------|-------------------------| 
G|--------------------------|-------------------------| 
D|--------------------------|-----5--6--7--8----------| 
A|--------5--------5--6--7--|--8----------------------| 
E|--6--8-----6--8-----------|----------------6--6--6--|


Outro (Horn line)

    Ebm7    Ab7      Ebm7    Ab7       Ebm7    Ab7        Ebm7    Ab7
e|-----------------|-----------------|-----------------|----------------| 
B|--7-6-4-4--------|-----------------|-----------------|----------------| 
G|----------6-5-3--|----3-5-5h6p5p3--|--3-5-5-5h6p5p3--|----------------| 
D|-----------------|--6--------------|-----------------|----------------| 
A|-----------------|-----------------|-----------------|----------------| 
E|-----------------|-----------------|-----------------|----------------| 
Tap to rate this tab
 
# A B C D E F G H I J K L M N O P Q R S T U V W X Y Z