Stevie Wonder - Superstitious tab

----------------------------
-Superstitious             -
-By: Stevie Wonder         -
-As performed by Blue Storm-
----------------------------

-------------------------------------------------------------------------------------
-I take no credit for this tab. It was taught to me by the lead singer of Blue Storm-
-------------------------------------------------------------------------------------

Tabbed by Justmenow
Questions, Comments E-mail: Hicupbob1993@yahoo.com

Meant for acoustic.


e|---------------------------------------|
B|---------------------------------------|
G|--------0------------------0-----------|
D|--2-0-2---2-0----------0-2---2-0-------|
A|--------------2-0--0-2----------2-0h2--|
E|-0-------------------------------------|

e|---------------------------------------|
B|---------------------------------------|
G|--------0------------------0-----------|
D|--2-0-2---2-0----------0-2---2-0-------|
A|--------------2-0--0-2-----------2-0---| Alternate these two
E|-0-------------------------------------| Play each twice


e|-3-3-------------------------------------|
B|-3-3-------------------------------------|
G|-3-3---------------------2/4-0-----------|
D|----------0--0h2-2-0-2-0-------2~~-------| x4
A|-----0-1-2--2----------------------------|
E|-----------------------------------------|

   Bsus2    Csus2    Bsus2   A#sus2   Asus2
e|-2--2-2-|-3--3-3-|-2--2-2-|-1--1-1-|-0-0-0-0-0-0-0-0-|-x-x-x-|KNOCK THE WOOD 
B|-2--2-2-|-3--3-3-|-2--2-2-|-1--1-1-|-0-0-0-0-0-0-0-0-|-x-x-x-|OF THE GUITAR 
G|-4--4-4-|-5--5-5-|-4--4-4-|-3--3-3-|-2-2-2-2-2-2-2-2-|-x-x-x-|
D|-4--4-4-|-5--5-5-|-4--4-4-|-3--3-3-|-2-2-2-2-2-2-2-2-|-x-x-x-|IF ELECTRIC:
A|-2--2-2-|-3--3-3-|-2--2-2-|-1--1-1-|-0-0-0-0-0-0-0-0-|-x-x-x-|STRUM MUTED STRINGS
E|--------|--------|--------|--------|-----------------|-x-x-x-|
Tap to rate this tab
 
# A B C D E F G H I J K L M N O P Q R S T U V W X Y Z