Song name
# A B C D E F G H I J K L M N O P Q R S T U V W X Y Z

Stevie Wonder - My Cherie Amour chords

Highlighted       Show chord diagrams
My Cherie Amour by Stevie Wonder

tabbed it out from this video: http://www.youtube.com/watch?v=FtpOpoxuEBI



     F#M7  BM7   C#M7  F#11  G#7sus  G#7    B9    A#7    D#7   C#6   G#7#5 
e|----x-----x-----x-----x-----4-----4-----x-----1-----x-----x-----x------|
B|----2-----4-----6-----x-----4-----4-----2-----3-----4-----4-----6------|
G|----3-----3-----5-----1-----6-----5-----2-----1-----6-----5-----5------|
D|----3-----4-----6-----2-----4-----4-----1-----3-----5-----3-----4------|
A|----x-----2-----4-----x-----6-----6-----2-----1-----6-----4-----x------|
E|----2-----x-----x-----2-----4-----4-----x-----x-----x-----x-----4------|

     DM7   G11   GM7   A7sus   A7     C9     B7      E7    D6
e|----x-----1/x---x------5------5------x------2------x------x------|
B|----7-----1-----3------5------5------3------4------5------5------|
G|----6-----2-----4------7------6------3------2------7------6------|
D|----7-----3-----4------5------5------2------4------6------4------|
A|----5-----x/0---x------7------7------3------2------7------5------|
E|----x-----3-----3------5------5------x------x------x------x------|


F#M7          BM7               C#M7
La la la la la la, La la la la la la


     C#M7        F#11               BM7  G#7sus-G#7
My cherie amour, lovely as a summer day
     C#M7        F#11               BM7  G#7sus-G#7
My cherie amour, distant as the milky way
     F#M7       G#7sus                 G#7      B9
My cherie amour, pretty little one that I adore
A#7                     D#7
You're the only girl my heart beats for
G#7                      C#6  G#7#5
How I wish that you were mine

(same as 1st verse)
In a cafe or sometimes on a crowded street
I've been near you, but you never noticed me
My cherie amour, won't you tell me how could you ignore
That behind that little smile I wore
How I wish that you were mine

(same as intro but go up 1 fret)
La la la la la la, La la la la la la
La la la la la la, La la la la la la


     D#M7      G11                           C#M7  A7sus-A7
Maybe someday, you'll see my face among the crowd
     D#M7      G11                           C#M7  A7sus-A7
Maybe someday, I'll share your little distant cloud
       GM7        A7sus                 C9    
Oh, cherie amour, pretty little one that I adore
B7                      E7
You're the only girl my heart beats for
A                        D6
How I wish that you were mine

(same as intro)
La la la la la la, La la la la la la
La la la la la la, La la la la la la
Tap to rate this tab
# A B C D E F G H I J K L M N O P Q R S T U V W X Y Z