Song name
# A B C D E F G H I J K L M N O P Q R S T U V W X Y Z

Stevie Wonder - My Cherie Amour tab

My Cherie Amour
Stevie Wonder


Intro
E|-----------------|---------------------|
A|-----------------|---------------------|
D|-5h6-------------|-5h6---------6-------|
G|-----3-------6-3-|-----3---------3-----|
B|-------4h6-4-----|-------4h6-4-----4h6-|
E|-----------------|---------------------|

         Gbmaj7   Bmaj7             C#maj7 
E|-------2----------|------------------|
A|----------------2-|------2--------4--|
D|-------3--3--3--4-|4--4--4--4--4--6--|
G|-------3--3--3--3-|3--3--3--3--3--5--|
B|-------2--2--2--4-|4--4--4--4--4--6--|
E|------------------|------------------|
   la la la la la la la la la la la la

   Ab7+5       C#maj7              C#m7                 Bmaj7                
E|------------|-------------------|--------------------|--------------------|
A|------------|4-----4--4----4----|4----4--4-----4-----|2-----2--2-----2----|
D|-6--6-------|6--6------6------6-|6--6-------6-----6--|4--4--------4-----4-|
G|-9--9-------|5--5------5------5-|4--4-------4-----4--|3--3--------3-----3-|
B|-7--7-------|6--6------6------6-|5--5-------5-----5--|4--4--------4-----4-|
E|-8--8-------|-------------------|--------------------|--------------------|
       My Che  rie    Amour        lovely as a summer's day

  Ab7sus4 Ab7      C#maj7              C#m7                 Bmaj7
E|-4------4-------|-------------------|--------------------|----------------|
A|----------------|4-----4-4----4-----|4----4--4-----4-----|2----2-2----2---|
D|-4--4---4-------|6--6------6------6-|6--6-------6-----6--|4-4-------4---4-|
G|-6--6---5-------|5--5------5------5-|4--4-------4-----4--|3-3-------3---3-|
B|-4--4---4-------|6--6------6------6-|5--5-------5-----5--|4-4-------4---4-|
E|----------------|-------------------|--------------------|----------------|
            My Che rie    Amour        distant as the milky way

  Ab7sus4 Ab7      Gbmaj7        Ab13                   Fm7
E|-4------4-------|2---2-2---2--|4-----4--4-----4------|1-----1--1-----1----|
A|----------------|-------------|----------------------|--------------------|
D|-4--4---4-------|3-3-----3---3|4--4--------4-------4-|---1--------1-----1-|
G|-6--6---5-------|3-3-----3---3|5--5--------5-------5-|---1--------1-----1-|
B|-4--4---4-------|2-2-----2---2|6--5--------6-------6-|---1--------1-----1-|
E|----------------|-------------|----------------------|--------------------|
            My Che rie    Amour  pretty little one that I adore    

  Bb9                      Eb9     
E|-----------------------|---------------------|
A|1------1--1------1-----|-6-----6--6-----6----|
D|-----------------------|---------------------|
G|1--1----------1-------1|----6--------6-----6-|
B|1--1----------1-------1|----6--------6-----6-|
E|1--1----------1-------1|----6--------6-----6-|
  You're the only girl my  heart beats for

   Ab13                     C#maj7
E|-4-----4--4-----4--------|---------------|
A|-------------------------|4--4--4-----4--|
D|-4--4--------4-----4-----|6--6-----6--6--|
G|-5--5--------5-----5-----|5--5-----5--5--|
B|-6--6--------6-----6-----|6--6-----6--6--|
E|-------------------------|---------------|
   How I wish that you were mine

   Ab7+5      C#maj7              C#m7                 Bmaj7                
E|------|-------------------|-------------------------|--------------------|
A|------|4-----4--4----4----|4----4--4-----4----------|2-----2--2-----2----|
D|-6----|6--6------6------6-|6--6-------6-----6-------|4--4--------4-----4-|
G|-9----|5--5------5------5-|4--4-------4-----4-------|3--3--------3-----3-|
B|-7----|6--6------6------6-|5--5-------5-----5-------|4--4--------4-----4-|
E|-8----|-------------------|-------------------------|--------------------|
   In a  Cafe                or sometimes on a crowded street  

  Ab7sus4 Ab7      C#maj7              C#m7                 Bmaj7
E|-4-----4-------|-------------------|--------------------|----------------|
A|---------------|4-----4-4----4-----|4----4--4-----4-----|2----2-2----2---|
D|-4--4--4-------|6--6------6------6-|6--6-------6-----6--|4-4-------4---4-|
G|-6--6--5-------|5--5------5------5-|4--4-------4-----4--|3-3-------3---3-|
B|-4--4--4-------|6--6------6------6-|5--5-------5-----5--|4-4-------4---4-|
E|---------------|-------------------|--------------------|----------------|
        I've been near you but        you never noticed    me

  Ab7sus4 Ab7      Gbmaj7        Ab13                   Fm7
E|-4------4-----|2---2-2---2--|4-----4--4-----4--------|1-----1--1-----1----|
A|--------------|-------------|------------------------|--------------------|
D|-4--4---4-----|3-3-----3---3|4--4--------4-------4---|---1--------1-----1-|
G|-6--6---5-----|3-3-----3---3|5--5--------5-------5---|---1--------1-----1-|
B|-4--4---4-----|2-2-----2---2|6--5--------6-------6---|---1--------1-----1-|
E|--------------|-------------|------------------------|--------------------|
          My Che rie Amour     won't you tell how could you ignore

  Bb9                      Eb9     
E|-----------------------|---------------------|
A|1------1--1------1-----|-6-----6--6-----6----|
D|-----------------------|---------------------|
G|1--1----------1-------1|----6--------6-----6-|
B|1--1----------1-------1|----6--------6-----6-|
E|1--1----------1-------1|----6--------6-----6-|
  That behind that little  smile I wore

   Ab13                     C#maj7
E|-4-----4--4-----4--------|---------------|
A|-------------------------|4--4--4-----4--|
D|-4--4--------4-----4-----|6--6-----6--6--|
G|-5--5--------5-----5-----|5--5-----5--5--|
B|-6--6--------6-----6-----|6--6-----6--6--|
E|-------------------------|---------------|
   How I wish that you were mine

         Gbmaj7   Bmaj7             C#maj7 
E|-------2----------|------------------|    
A|----------------2-|------2--------4--|
D|-------3--3--3--4-|4--4--4--4--4--6--|       2x
G|-------3--3--3--3-|3--3--3--3--3--5--|
B|-------2--2--2--4-|4--4--4--4--4--6--|
E|------------------|------------------|
   la la la la la la la la la la la la

overtone
   A7+5        Dmaj7               Dm7                  Cmaj7                
E|------------|-------------------|--------------------|--------------------|
A|------------|5-----5--5----5----|5----5--5-----5-----|3-----3--3-----3----|
D|-7--7-------|7--7------7------7-|7--7-------7-----7--|5--5--------5-----5-|
G|-10-10------|6--6------6------6-|6--5-------5-----5--|4--4--------4-----4-|
B|-8--8-------|7--7------7------7-|6--6-------6-----6--|5--5--------5-----5-|
E|-9--9-------|-------------------|--------------------|--------------------|
       Maybe   someday             you'll see my face a mong the crowd

  A7sus4  A7      Dmaj7               Dm7                    Cmaj7
E|-5------5-----|-------------------|----------------------|----------------|
A|--------------|5-----5-5----5-----|5----5--5-----5-------|3----3-3----3---|
D|-5--5---5-----|7--7------7------7-|7--7-------7-----7----|5-5-------5---5-|
G|-7--7---6-----|6--6------6------6-|5--5-------5-----5----|4-4-------4---4-|
B|-5--5---5-----|7--7------7------7-|6--6-------6-----6----|5-5-------5---5-|
E|--------------|-------------------|----------------------|----------------|
           Maybe  someday            I'll share your little distant cloud

  A7sus4  A7       Gmaj7         A13                    F#m7
E|-5------5-------|3---3-3---3--|5-----5--5-----5------|2-----2--2-----2----|
A|----------------|-------------|----------------------|--------------------|
D|-5--5---5-------|4-4-----4---4|5--5--------5-------5-|---2--------2-----2-|
G|-7--7---6-------|4-4-----4---4|6--6--------6-------6-|---2--------2-----2-|
B|-5--5---5-------|3-3-----3---3|7--7--------7-------7-|---2--------2-----2-|
E|----------------|-------------|----------------------|--------------------|
            Oh Che rie    Amour  pretty little one that I adore    

  B9                      E9     
E|-----------------------|---------------------|
A|2------2--2------2-----|-7-----7--7-----7----|
D|-----------------------|---------------------|
G|2--2----------2-------2|----7--------7-----7-|
B|2--2----------2-------2|----7--------7-----7-|
E|2--2----------2-------2|----7--------7-----7-|
  You're the only girl my  heart beats for

   A13                      Dmaj7
E|-5-----5--5-----5--------|---------------|
A|-------------------------|5--5--5-----5--|
D|-5--5--------5-----5-----|7--7-----7--7--|
G|-6--6--------6-----6-----|6--6-----6--6--|
B|-7--7--------7-----7-----|7--7-----7--7--|
E|-------------------------|---------------|
   How I wish that you were mine

         Gmaj7   Cmaj7              Dmaj7 
E|-------3----------|------------------|    
A|----------------3-|------3--------5--|
D|-------4--4--4--5-|5--5--5--5--5--7--|       2x
G|-------4--4--4--4-|4--4--4--4--4--6--|
B|-------3--3--3--5-|5--5--5--5--5--7--|
E|------------------|------------------|
   la la la la la la la la la la la la






This is my first time to write a Tab. I'm sorry the tab is read upside down. Hope 
you like it. Thankyou.
Tap to rate this tab
# A B C D E F G H I J K L M N O P Q R S T U V W X Y Z