Song name
# A B C D E F G H I J K L M N O P Q R S T U V W X Y Z

Stevie Wonder - Superstition tab

Here is my version of Very Superstitious by Stevie Wonder,
which I believe is much more accurate. Awesome song. Enjoy
Tune Low E down one half step.

e ---------|-----------------------|----------------------
b ---------|-----------------------|----------------------
g ---------|-----------------------|----------------------
d ---------|----------4-----X-X-X--|----------4-----------
a -1h3-4-6-|---6-4-6----X-4-X-X-X--|-1-3-4-6----X-3h4-6---
D#---------|-0---------------------|----------------------

e------------------------|--------------------------------
b------------------------|--------------------------------
g------------------------|--------------------------------
d-----------4-----X-X-X--|----------4---------------------
a----6-4-6----X-4-X-X-X--|-1-3-4-6----4-6-----------------
D#-0---------------------|--------------------------------

Main Riff x9(Leave out Hammer on 3rd time)
e------------------------|--------------------------------
b------------------------|--------------------------------
g------------------------|--------------------------------
d-----------4------------|----------4---------------------
a----6-4-6----X-4-X-4h6--|-1-3-4-6----X-4-X-4h6-----------
D#-0---------------------|--------------------------------

Trumpet part 1 x4
e------------------------------------|
b------------------------------9-7-4-|
g-8-8--------6----8-8---8-6-8--------|
d-8-8--4-6-8---8---------------------|
a------------------------------------|
D#-----------------------------------|

(1:04)
e------------------------|--------------------------------
b------------------------|-------------------9---9--9--9--
g------------------------|-------------------10--10-10-10-
d-----------4------------|----------4--------8---8--8--8--
a----6-4-6----X-4-X-4h6--|-1-3-4-6----X-4-X---------------
D#-0---------------------|--------------------------------

e---------------------------------------------------------------
b----------------9---9--9--9----7--7-7-X--7-7----9--9--9--9--9--
g-11--11-11-11---10--10-10-10---8--8-8-X--8-8----11-11-11-11-11-
d-9---9--9--9----8---8--8--8----6--6-6-X--6-6----8--8--8--8--8--
a---------------------------------------------------------------
D#--------------------------------------------------------------


e----------------------------|--------------------------------
b----------------------------|--------------------------------
g----------------------------|--------------------------------
d---------------4------------|----------4---------------------
a--4h6---6-4-6----X-4-X-4h6--|-1-3-4-6----X-4-X-4h6-----------
D#-----0---------------------|--------------------------------

Trumpet part 2 
e------------------------------------|
b-14---14--13--11--13--4-------------|
g------------------------------------|
d------------------------------------|
a------------------------------------|
D#-----------------------------------|

e------------------------|---------------------------------
b------------------------|---------------------------------
g------------------------|---------------------------------
d-----------4-----X-X-X--|----------4-6--4-6---------------
a----6-4-6----X-4-X-X-X--|-1-3-4-6-------------------------
D#-0---------------------|---------------------------------

e------------------------|--------------------------------
b------------------------|--------------------------------
g------------------------|--------------------------------
d-----------4------------|----------4---------------------
a----6-4-6----X-4-X-4h6--|-1-3-4-6----X-4-X-4h6-----------
D#-0---------------------|--------------------------------

(1:32)
e------------------------|--------------------------------
b------------------------|--------------------------------
g------------------------|--------------------------------
d-----------4------------|----------4----4---4------------
a----6-4-6----X-4-X-4h6--|-1-3-4-6----6----6-6------------
D#-0---------------------|--------------------------------

e------------------------|--------------------------------
b------------------------|--------------------------------
g------------------------|--------------------------------
d-----------4------------|-------6-4-6--4-----------------
a----6-4-6----6-6-X-4h6--|-1-3-4----------6---------------
D#-0---------------------|--------------------------------

e------------------------|--------------------------------
b------------------------|--------------------------------
g------------------------|--------------------------------
d-----------4-----X-X-X--|-------6---X--------------------
a----6-4-6----X-4-X-X-X--|-1-3-4---6-X-6------------------
D#-0---------------------|--------------------------------


|-Trumpet Part 1 with Main Riff x4-|

|-(Chorus Part)-|

(2:14)
e-------|-----------------------|-------------------------
b-------|-----------------------|-------------------------
g-------|-----------------------|-------------------------
d-------|----------4------------|----------6--4h6--4h6----
a--4h6p4|---6-4-6----X-4-X-4h6--|-1-3-4-6-----------------
D#------|-0---------------------|-------------------------

e----------------------|-----------------------------------
b----------------------|---------------------9-------9---7-
g----------------------|---------------------10--10--10--8-
d-----------4----------|----------6----------8---9---8---6-
a----6-4-6----X-4-X-6--|-1-3-4-6----4h6p4-1----------------
D#-0-------------------|-----------------------------------

e-------------------------|
b-------------------------|
g-------------------------|
d--8p6-4---4-------4------|
a--------6---4-6-4---4-6--|
D#------------------------|

e------------------------|--------------------------------
b------------------------|--------------------------------
g------------------------|--------------------------------
d-----------4------------|----------4---------------------
a----6-4-6----X-4-X-4h6--|-1-3-4-6----X-4-X-4h6-----------
D#-0---------------------|--------------------------------

e------------------------|---------------------------------
b------------------------|---------------------------------
g------------------------|---------------------------------
d-----------4-----X-X-X--|----------6-4h6--4h6-------------
a----6-4-6----X-4-X-X-X--|-1-3-4-6-------------------------
D#-0---------------------|---------------------------------

|---------------------x3------------------------|
e------------------------|--------------------------------
b------------------------|--------------------------------
g------------------------|--------------------------------
d-----------4------------|----------4---------------------
a----6-4-6----X-4-X-4h6--|-X-3-4-6----6-4-X-4h6-----------
D#-0---------------------|--------------------------------


e------------------------|---------------------------------
b------------------------|---------------------------------
g------------------------|---------------------------------
d-----------4------------|------6--4--6--4--6--4-----------
a----6-4-6----X-4-X-4h6--|-1-3-----------------------------
D#-0---------------------|---------------------------------

|-Trumpet Part 1 with Main Riff x4-|

|-(Chorus Part)-|

(3:29)
e------|-----------------------|-------------------------
b------|-----------------------|-------------------------
g------|-----------------------|-------------------------
d----4-|----------4------------|----------4--------------
a--4---|---6-4-6----X-4-X-4h6--|-1-3-4-6----X-4-X-4h6----
D#-----|-0---------------------|-------------------------

|-------------------x2-------------------------|
e------------------------|--------------------------------
b------------------------|--------------------------------
g------------------------|--------------------------------
d-----------4------------|----------4----4---4------------
a----6-4-6----X-4-X-4h6--|-1-3-4-6----6----6-6------------
D#-0---------------------|--------------------------------

|--x8--Varying-speeds-on-the-last-part-till-fade-out--|
e------------------------|---------------------------------
b------------------------|---------------------------------
g------------------------|---------------------------------
d-----------4-----X-X-X--|----------4---4------------------
a----6-4-6----X-4-X-X-X--|-1-3-4-6----6---6-1--------------
D#-0---------------------|---------------------------------
Tap to rate this tab
# A B C D E F G H I J K L M N O P Q R S T U V W X Y Z