Song name
# A B C D E F G H I J K L M N O P Q R S T U V W X Y Z

Stevie Wonder - Dont You Worry About A Thing tab

Highlighted       Show chord diagrams
"Dont You Worry About A Thing"     Stevie Wonder


[intro]
 Ebm       Bb7(b13)  Ebm7      Bb9(b13)  Ebm       Bb7(b13)  Ebm7      Bb9(b13)  
|----=----=----=----+----=----=----=----+----=----=----=----+----=----=----=----|  *5


[A]
 Everybody's got a thing       But some don't know how to handle it
 Everybody needs a change      A chance to check out the new
 Ebm       Bb7(b13)  Ebm7      Ab7       Dbm9      Gb7(13)   BM7       E9(#11)   
|----=----=----=----+----=----=----=----+----=----=----=----+----=----=----=----|

 Always reachin' out in vain     Just taking the things not worth having   but Don't you worry 'bout a
 But you're the only one to see    The changes you take yourself through   but Don't you worry 'bout a
 Ebm       Bb7(b13)  Ebm7      Ab7       Dbm9      Gb7(13)   BM7                 E9(#11)             
|----=----=----=----+----=----=----=----+----=----=----=----+----=----=----=----+----=----=----=----|

 thing           Don't you worry 'bout a thing, mama          Cause I'll be
 Gb                  Gb9          Gb9/Ab Bbm7                BM7        BM7 Bb7 A7
|----=----=----=----+----=----=----=----+----=----=----=----+----=----=----=----|

 standing on the side   When you check it out
 Ab7                 Db9(11)             GbM7(9)             Bb7(b13)            
|----=----=----=----+----=----=----=----+----=----=----=----+----=----=----=----|


[A']
 They say your style of life's a drag    And that you must go other places
 Ebm       Bb7(b13)  Ebm7      Ab7       Dbm9      Gb7(13)   BM7       E9(#11)   
|----=----=----=----+----=----=----=----+----=----=----=----+----=----=----=----|

 But just don't you feel too bad    When you get fooled by smiling faces but    Don't you worry 'bout a
 Ebm       Bb7(b13)  Ebm7      Ab7       Dbm9      Gb7(13)   BM7                 E9(#11)             
|----=----=----=----+----=----=----=----+----=----=----=----+----=----=----=----+----=----=----=----|

 thing           Don't you worry 'bout a thing, mama          Cause I'll be
 Gb                  Gb9          Gb9/Ab Bbm7                BM7        BM7 Bb7 A7
|----=----=----=----+----=----=----=----+----=----=----=----+----=----=----=----|

 standing on the side   When you check it
 Ab7                 Db9(11)             
|----=----=----=----+----=----=----=----|

[B]
 out                                                                 When you get 
 Gbsus4  Fsus4   Esus4     Ebsus4    Dsus4      Dbsus4  GbM7(9)                  
|----=----=----=----+----=----=----=----+----=----=----=----+----=----=----=----|

 off                                               your trip         Don't you worry 'bout a
 Gbsus4  Fsus4   Esus4     Ebsus4    Dsus4      Dbsus4  GbM7(9)   brake          
|----=----=----=----+----=----=----=----+----=----=----=----+----=----=----=----|

[C]
 thing                                                               Don't you worry 'bout a
 Ebm       Bb7(b13)  Ebm7      Bb9(b13)   EM7(9)                                 
|----=----=----=----+----=----=----=----+----=----=----=----+----=----=----=----|

 thing                            
 Ebm       Bb7(b13)  Ebm7      Bb9(b13)   EM7(9)                                 
|----=----=----=----+----=----=----=----+----=----=----=----+----=----=----=----|

[A']  pa pa・・・no no・・・

[B']
 out                                                                 When you get 
 Gbsus4  Fsus4   Esus4     Ebsus4    Dsus4      Dbsus4  GbM7(9)                  
|----=----=----=----+----=----=----=----+----=----=----=----+----=----=----=----|

 off                                               your trip         
 Gbsus4  Fsus4   Esus4     Ebsus4    Dsus4      Dbsus4  GbM7(9)       Bb9(b13)   
|----=----=----=----+----=----=----=----+----=----=----=----+----=----=----=----|

[A]

[C] *2

[Ending]  repeat

Don't you worry 'bout a  thing
 Ebm       Bb7(b13)  Ebm7      Ab7       Dbm9      Gb7(13)   BM7       E9(#11)   
|----=----=----=----+----=----=----=----+----=----=----=----+----=----=----=----|


intro
    Ebm   Bb7(b13)  Ebm7  Bb9(b13) 
e:---X---|---X---|---X---|---X---| 
B:---7---|---7---|---7---|---7---| 
G:---8---|---7---|---6---|---5---| 
D:---8---|---6---|---8---|---6---| 
A:---6---|---X---|---6---|---X---| 
E:---X---|---6---|---X---|---6---| 

[A]
    Ebm   Bb7(b13)  Ebm7    Ab7    Dbm9   Gb7(13)   BM7    E9(#11)
e:---X---|---X---|---X---|---X---|---X---|---X---|---X---|---6---| 
B:---7---|---7---|---7---|---4---|---4---|---4---|---4---|---7---| 
G:---8---|---7---|---6---|---5---|---4---|---3---|---3---|---7---| 
D:---8---|---6---|---8---|---4---|---2---|---2---|---5---|---X---| 
A:---6---|---X---|---6---|---X---|---4---|---X---|---2---|---7---| 
E:---X---|---6---|---X---|---4---|---X---|---2---|---X---|---X---| 

     Gb     Gb9     Bbm7    BM7     Bb7     A7      Ab7   Db9(11) GbM7(9)  Bb7(b13) 
e:---2---|---X---|---X---|---X---|---X---|---X---|---X---|---2---|---X---|---X---|
B:---2---|---2---|---6---|---7---|---6---|---5---|---4---|---4---|---9---|---7---|
G:---3---|---1---|---6---|---8---|---7---|---6---|---5---|---4---|--10---|---7---|
D:---4---|---2---|---6---|---8---|---6---|---5---|---4---|---X---|---8---|---6---|
A:---4---|---X---|---X---|---X---|---X---|---X---|---X---|---4---|---9---|---X---|
E:---2---|---2---|---6---|---7---|---6---|---5---|---4---|---X---|---X---|---6---|

[B]
  Gbsus4   Fsus4   Esus4   Ebsus4  Dsus4  Dbsus4  GbM7(9) 
e:---X---|---X---|---X---|---X---|---X---|---X---|---X---|
B:--12---|--11---|--10---|---9---|---8---|---7---|---9---|
G:--11---|--10---|---9---|---8---|---7---|---6---|--10---|
D:--11---|--10---|---9---|---8---|---7---|---6---|---8---|
A:---9---|---8---|---7---|---6---|---5---|---4---|---9---|
E:---X---|---X---|---X---|---X---|---X---|---X---|---X---|
Tap to rate this tab
# A B C D E F G H I J K L M N O P Q R S T U V W X Y Z