Song name
# A B C D E F G H I J K L M N O P Q R S T U V W X Y Z

Stevie Wonder - Isnt She Lovely tab



hey guys.. this is my first tab!   XD   hope u like it.

ill show the tabs..  i also know the chords but i dont know how to tab them.
sorry.   if anyone knows please tell me!!

Dont go to hard out on me. im only 13.   and my first tab

hope you enjoy.



| /  slide up
| \  slide down
| h  hammer-on
| p  pull-off
| ~  vibrato
| +  harmonic
| x  Mute note
| w  (w) is my thing. i dunno what else to put. it means to
         wiggle/bend the string.. for a better effect.





NOTE:  with the 3 slides up on the second fret board thing.
       only slide from the fret before it. dont need to do it
       if you dont want to.   just play the note itself



   
e|-----------------------5-5-------------------------------------------------|
B|---/5-6-5--------------5-5-------5-6-5-------------------------------------|
G|-------------7----5----5-5-----------------7----5--------------------------|x2
D|-----------------------------------------------------5h7-5-----------------| 
A|---------------------------------------------------------------------------|
E|---------------------------------------------------------------------------|  

e|---------------------------------------------------------------------------|
B|---5-6-8-8-----5-6-8-w6-------/5-/5-/5-------------------------------------|
G|-----------------------------------------7-5-7--5--------------------------|
D|--------------------------------------------------7------------------------|
A|---------------------------------------------------------------------------|
E|---------------------------------------------------------------------------|

e|---------------------------------------------------------------------------|
B|---5-6-5-------------------------------------------------------------------|
G|----------7-----5------------------5---------------------------------------|
D|-----------------------7-----w5--------------------------------------------|
A|---------------------------------------------------------------------------|
E|---------------------------------------------------------------------------|

e|---------------------------------------------------------------------------|
B|----------------------------------5----------------------------------------|
G|----------------------------5-----5----------------------------------------|
D|----------------------5-7---------5----------------------------------------|
A|-------------5-6-7---------------------------------------------------------|
E|---3/5--8------------------------------------------------------------------|

e|---------------------------------------------------------------------------|
B|---------------------------------------------------------------------------|
G|---------------------------------------------------------------------------|
D|---------------------------------------------------------------------------|
A|---------------------------------------------------------------------------|
E|---------------------------------------------------------------------------|

Tap to rate this tab
# A B C D E F G H I J K L M N O P Q R S T U V W X Y Z