Song name
# A B C D E F G H I J K L M N O P Q R S T U V W X Y Z

Stewart Rod - I Was Only Joking tab

e|-------------------------------------------------------12-----------------------|
B|-------10~~-------10-----12b-10-12----10~~----10-12-10---12b12b12b12---12--10~~-|
G|--9h11------9-11-----11------------11-------------------------------11---11-----|
D|--------------------------------------------------------------------------------|
A|--------------------------------------------------------------------------------|
E|--------------------------------------------------------------------------------|

e|-------12b-hold---12b12-10--9-10----9-10-9-----------------------------------|
B|-12-10---------------------------8---------------12b-12~~---10-12---10~~-----|
G|-------------------------------------------9~~~------------------11----------|
D|-----------------------------------------------------------------------------|
A|-----------------------------------------------------------------------------|
E|-----------------------------------------------------------------------------|

e|--------12--14-12--14-14-12~--14-12-14br-12-------12-----------------------|
B|--12/14-------------------------------------12h14----12br12br10------------|
G|----------------------------------------------------------------10-11~~----|
D|---------------------------------------------------------------------------|
A|---------------------------------------------------------------------------|
E|---------------------------------------------------------------------------|

e|---------------------------------------------------------------------------|
B|-r12-10-12--10-12-12-10-10p9-----------------r12-10---10-------------------|
G|-----------------------------11-9-9~~--11-9---------11---------------------|
D|---------------------------------------------------------------------------|
A|---------------------------------------------------------------------------|
E|---------------------------------------------------------------------------|

Tap to rate this tab
 
# A B C D E F G H I J K L M N O P Q R S T U V W X Y Z