Song name
# A B C D E F G H I J K L M N O P Q R S T U V W X Y Z

Stick Figure - Vibes Alive tab

This song's the first track off of stick figure's third album smoke stack.  They use a 
bunch of really cool reverb and delay effects resulting in a pretty sick dub sound.... 
this song is a fun one.


(Intro lead)
e |---------------------------------------------------------|
b |--5h7--5h3-----------5s7--5h3----------------------------|
g |------------4-----------------4--------------------------|   (//repeat)
d |---------------------------------------------------------|
a |---------------------------------------------------------|
e |---------------------------------------------------------|


\\verse//

      (Bm)                           (G)
       lay down the foundation         lay down the line

e |--2--2--2--2----------------3--3--3--3----------|
b |--3--3--3--3----------------3--3--3--3----------|
g |--4--4--4--4----------------4--4--4--4----------|
d |--4--4--4--4----------------5--5--5--5----------|
a |--2--2--2--2----------------5--5--5--5----------|
e |----------------------------3--3--3--3----------|

(repeat)



                 ||chorus||
      (A)                         (Bm)
      everyone move everyone get     down
e |--5--5--5--5-----------------7--7--7--7-------|
b |--5--5--5--5-----------------7--7--7--7-------|
g |--6--6--6--6-----------------7--7--7--7-------|
d |--7--7--7--7-----------------9--9--9--9-------|
a |--7--7--7--7-----------------9--9--9--9-------|
e |--5--5--5--5-----------------7--7--7--7-------|
Tap to rate this tab
# A B C D E F G H I J K L M N O P Q R S T U V W X Y Z