Song name
# A B C D E F G H I J K L M N O P Q R S T U V W X Y Z

Stick Figure - We Get High tab

Intro/Chorus

------------------------------|
-------11--12p11------9-12p9--|
-----11--11-----11---9-9----9-|
---11---------------9---------|
------------------------------|
------------------------------|

Chords throughout song:
-9-----7---|
-11----9---|
-11----9---|
-11----9---|
-9-----7---|
-----------|

Guitar fill at 0:14
------------------------------|
--------12-12-----12h14-12h14-|
-s11--------------------------|
------------------------------|
------------------------------|
------------------------------|

Fill at 0:53
------------------------------------------------------------------------------|
-11-11-11-11-9----------------11-11-11-11-9------------9----------------------|
---------------11-9-9-9h11------------------11-9-9-9h11-----------------------|
------------------------------------------------------------------------------|
------------------------------------------------------------------------------|
------------------------------------------------------------------------------|

--------------------------------------------------------|
-11-11-11-11-9----------------11-11-11-11-9-------------|
---------------11-9-9-9h11------------------11-9-9-9p8--|

1:08
------|
------|
------|
------|
-99999| x3
------|

Solo 1:43
----------------------------------------------------------------------------|
-14-14-14--14-14p12--12-12p11-11-11~------11h12p11-9-11-9-7-9-9p7--7-7p5----|
----------------------------------------------------------------------------|
----------------------------------------------------------------------------|
----------------------------------------------------------------------------|
----------------------------------------------------------------------------|

----------------------------------------------------------------------------|
-5-5p4-4-4h5-5--4h5p4-4-7-5-4-2--5-4-2-5-4-2-0------------------------------|
----------------------------------------------3-----------------------------|
----------------------------------------------------------------------------|
----------------------------------------------------------------------------|
----------------------------------------------------------------------------|


 the end part of the solo is not exact but sounds ok^^^^^^^



2:08
-------------------|
---3~-----4~-------|
-------------------|
-------------------|
-------------------|
-------------------|
 "high"   "low"

2:21
---6~-6h7~--s9-6     -6-7-6-|
----------------     -------|
----------------x2   -------|x2
----------------     -------|
----------------     -------|
----------------     -------|

That's pretty much it.
Tap to rate this tab
# A B C D E F G H I J K L M N O P Q R S T U V W X Y Z